Krebs Pete - Bittersweet Chords & Tabs

 

Bittersweet Chords & Tabs

Krebs Pete Chords & Tabs

Version: 2 Type: Tab 0 ratings
1 star 2 stars 3 stars 4 stars 5 stars
comments

Bittersweet Tab

pete krebs
bittersweet
...intro
e---1----1---------1-------1-------1---1------1-------1--------------------------
B---0--------0---------0-------0---0------0-------0-------0----------------------
G---0------0---------0-------0-----0----0-------0-------0------------------------
D--------------------------------------------------------------------------------
A--------------------------------------------------------------------------------
E-3----3---------1-------1-------3---3------1-------1----------------------------
								x2

e---1----1---------1-------1-------1---1------1-------1--------------------------
B---0--------0---------0-------0---0------0-------0-------0----------------------
G---0------0---------0-------0-----0----0-------0-------0------------------------
D--------------------------------------------------------------------------------
A--------------------------------------------------------------------------------
E-3----3---------1-------1-------3---3------1-------1----------------------------
"a  moment   of   quiet          youth. 
a bouquet   of   nothing but  a  pair   of  eyes."

e---1----1-------1-------1-------1---1------1-------1----------------------------
B---0--------0-------0-------0---0------0-------0-------0------------------------
G---0------0-------0-------0-----0----0-------0-------0--------------------------
D0-------------------------------------------------------------------------------
A--3---3-------3-------3-------3---3------3-------3------------------------------
E--------------------------------------------------------------------------------
  "time has been suspended,   your free to be you and you are

e---1----1---------1-------1-------1---1------1-------1--------------------------
B---0--------0---------0-------0---0------0-------0-------0----------------------
G---0------0---------0-------0-----0----0-------0-------0------------------------
D--------------------------------------------------------------------------------
A--------------------------------------------------------------------------------
E-3----3---------1-------1-------3---3------1-------1----------------------------
"me      again"

Ringing ears and whispers,
late night and darknesses
reading palms by candellight
compairing your love-lines 

your hand is resting near to me
you feel the words instead of hearing them
                     
e--------------------------------------------------------------------------------
B---3-----3---3^4-4^3-------6---6-------7----------------------------------------
G---3-------3-3---3---------7-------7-------6------------------------------------
D---3---3-----3---3---------7-----7-------7--------------------------------------
A--------------------------------------------------------------------------------
E-1----1------1---1----1-/5---5-------5------------------------------------------
 "oh,  oh, oh.                        bittersweet"

e---1----1---------1-------1-------1---1------1-------1--------------------------
B---0--------0---------0-------0---0------0-------0-------0----------------------
G---0------0---------0-------0-----0----0-------0-------0------------------------
D--------------------------------------------------------------------------------
A--------------------------------------------------------------------------------
E-3----3---------1-------1-------3---3------1-------1----------------------------

e---1----1---------1-------1-------1---1------1-------1--------------------------
B---0--------0---------0-------0---0------0-------0-------0----------------------
G---0------0---------0-------0-----0----0-------0-------0------------------------
D--------------------------------------------------------------------------------
A--------------------------------------------------------------------------------
E-3----3---------1-------1-------3---3------1-------1----------------------------

sunlight hits the window
the brain is still sleeping
your sitting at a table
and holdin your breath against
[ Tab from: http://www.guitartabs.cc/tabs/k/krebs_pete/bittersweet_tab_ver_2.html ]
e---1----1-------1-------1-------1---1------1-------1----------------------------
B---0--------0-------0-------0---0------0-------0-------0------------------------
G---0------0-------0-------0-----0----0-------0-------0--------------------------
D0-------------------------------------------------------------------------------
A--3---3-------3-------3-------3---3------3-------3------------------------------
E--------------------------------------------------------------------------------

a promise or a moment
tenuous connections

e---1----1---------1-------1-------1---1------1-------1--------------------------
B---0--------0---------0-------0---0------0-------0-------0----------------------
G---0------0---------0-------0-----0----0-------0-------0------------------------
D--------------------------------------------------------------------------------
A--------------------------------------------------------------------------------
E-3----3---------1-------1-------3---3------1-------1----------------------------

this one's for beloved

                     
e--------------------------------------------------------------------------------
B---3-----3---3^4-4^3-------6---6-------7----------------------------------------
G---3-------3-3---3---------7-------7-------6------------------------------------
D---3---3-----3---3---------7-----7-------7--------------------------------------
A--------------------------------------------------------------------------------
E-1----1------1---1----1-/5---5-------5------------------------------------------
 "oh,  oh, oh.                        bittersweet"

(piano)

e---1----1---------1-------1-------1---1------1-------1--------------------------
B---0--------0---------0-------0---0------0-------0-------0----------------------
G---0------0---------0-------0-----0----0-------0-------0------------------------
D--------------------------------------------------------------------------------
A--------------------------------------------------------------------------------
E-3----3---------1-------1-------3---3------1-------1----------------------------

e---1----1-------1-------1-------1---1------1-------1----------------------------
B---0--------0-------0-------0---0------0-------0-------0------------------------
G---0------0-------0-------0-----0----0-------0-------0--------------------------
D0-------------------------------------------------------------------------------
A--3---3-------3-------3-------3---3------3-------3------------------------------
E--------------------------------------------------------------------------------

e--------------------------------------------------------------------------------
B---3-----3---3^4-4^3-------6---6-------7----------------------------------------
G---3-------3-3---3---------7-------7-------6------------------------------------
D---3---3-----3---3---------7-----7-------7--------------------------------------
A--------------------------------------------------------------------------------
E-1----1------1---1----1-/5---5-------5------------------------------------------

e---1----1---------1-------1-------1---1------1-------1--------------------------
B---0--------0---------0-------0---0------0-------0-------0----------------------
G---0------0---------0-------0-----0----0-------0-------0------------------------
D--------------------------------------------------------------------------------
A--------------------------------------------------------------------------------
E-3----3---------1-------1-------3---3------1-------1----------------------------

e---1----1---------1-------1-------1---1------1-------1--------------------------
B---0--------0---------0-------0---0------0-------0-------0----------------------
G---0------0---------0-------0-----0----0-------0-------0------------------------
D--------------------------------------------------------------------------------
A--------------------------------------------------------------------------------
E-3----3---------1-------1-------3---3------1-------1----------------------------

thoughts into mind
words into sentances
whispered anytime
you needed to make sence of it

everything is open
your free to depend on

the balance in your life

TV is on
time is standin still
i'm ranging my love
by the flowers on the sill

waiting for arival
waiting for a-rival

i'm waiting for you to call

oh ohoh, bittersweet
oh ohoh, bittersweet
Comments