Kreator - Violent Revolution Chords & Tabs

 

Kreator Chords & Tabs

Version: 1 Type: Tab 0 ratings
1 star 2 stars 3 stars 4 stars 5 stars
comments

Violent Revolution Tab

   
Kreator
Violent Revolution
Sam "the Muel" Marwick
Not quite Finished
 but should be good for now. 
  feel free to make corrections

.PM           ~Vibrate    "Tremelo picking
/Slide Up     #AH
\Slide Down   +NH

Tuning D

Riff A.1 [0:00]
|------------------------------------------------------|
|------------------------------------------------------|G
|--------7---------------------7-----------------------|t 
|----------10-9~----2-4----------10-9~--7--------2---4-|r 
|-2--/7-----------5-0-2-5--/7-------------10\----0-5-2-|1
|-0---------------3-----3--------------------------3---|
|
|
|------------------------------------------------------|
|------------------------------------------------------|G 
|------------------------------------------------------|t
|-------------------2-4--------------------------2---4-|r
|-2-----(2)-------5-0-2-5------(5)-----------5\2-0-5-2-|2
|-0-----(0)-------3-----3------(3)-----------3\0---3---|


Riff A.2 [0:07]
|------------------------------------------------------|
|------------------------------------------------------|G
|--------7---------------------7--------9\-------------|t
|----------10-9~----2-4----------10-9~-----------2---4-|r
|-2--/7-----------5-0-2-3--/7--------------------0-5-2-|1
|-0---------------3-----1--------------------------3---|
|
|
|------------------------------------------------------|
|------------------------------------------------------|G
|------------------------------------------------------|t
|-------------------2-4--------------------------2---4-|r
|-2-----(2)-------5-0-2-3------(3)-----------5\2-0-5-2-|2
|-0-----(0)-------3-----1------(1)-----------3\0---3---|


Riff A.1 [0:13]
Riff A.2 [0:20]

Riff B.1 [0:26]
|-----------------------------------|---|---|---------------------------------|G
|-----------------------------------|---|---|---------------------------------|t
|*---------------------------------*|-*-|-*-|---------------------------------|r
|*-------------------------------2-*|-*-|-*-|-------------------------------2-|1 
|--5\2-----------------------3p2-0--|---|---|-5/7-----------------------3P2-0-|+
|--3\0-0-0-000-0-0-000-0-0-0-1p0----|---|---|-3/5-5-5-555-5-5-555-5-5-5-1P0---|2
       . . ... . . ... . . .                      . . ... . . ... . . .

Riff B.2 [0:40]
|-----------------------------------|---|---|---------------------------------|
|-----------------------------------|---|---|---------------------------------|G
|*---------------------------------*|-*-|-*-|---------------------------------|t
|*-------------------------------2-*|-*-|-*-|---------------------------------|r 
|--5\2-----------------------3p2-0--|---|---|-5/7-----------------------------|1
|--3\0-0-0-000-0-0-000-0-0-0-1p0----|---|---|-3/5-5-5-555-5-5-555-5-5-555-555-|
|      . . ... . . ... . . .                      . . ... . . ... . . ... ...   
|
|-----------------------------------|---|---|---------------------------------|
|-----------------------------------|---|---|---------------------------------|G
|*---------------------------------*|-*-|-*-|---------------------------------|t
|*-------------------------------2-*|-*-|-*-|-------------------------------2-|r 
|--5\2-----------------------3p2-0--|---|---|-5/7-----------------------3P2-0-|2
|--3\0-0-0-000-0-0-000-0-0-0-1p0----|---|---|-3/5-5-5-555-5-5-555-5-5-5-1P0---|
       . . ... . . ... . . .                      . . ... . . ... . . . 

Riff C [0:53] 
|----------------------------------|--------------------------------|---|--------------------------------|G
|----------------------------------|--------------------------------|---|--------------------------------|t
|*--------------------------------*|--------------------------------|-*-|--------------------------------|r
|*----------------------------2h3-*|----------------------------2h3-|-*-|-------------------3-3------2-2-|1
|--5\2--2-2-333--2-2-555--2-3-0h1--|-5\2--2-2-333--2-2-555--2-3-----|---|-5\2--2-2-333--2-2-1-1------0-0-|+
|--3\0--0-0-111--0-0-333--0-1------|-3\0--0-0-111--0-0-333--0-1-----|---|-3\0--0-0-111--0-0-----0000-----|2
        . . ...  . . ...                  . . ...  . . ...      #              . . ...  . .     ....

Riff B.1 [1:07]
Riff B.2 [1:20]
Riff C   [1:33]

Riff D.1 [1:47]
|----------------------------------|---------|---------|
|----------------------------------|---------|---------|G
|----------------------------------|---------|---------|t
|----------------------------------|---------|---------|r
|---3-3p2-----3-2h3-5-5/7-------2~-|---2-3-5-|---2h3p2-|1
|-0-------3-0-------------0-3h5----|-3-------|-3-------|


Riff D.1

Riff D.2 [2:00]
|----------------------------------|---------|---------|
|----------------------------------|---------|---------|G
|----------------------------------|---------|---------|t
|----------------------------------|---------|---------|r
|---3-3p2-----3-2h3-5-5/7-------2~-|---2-3-5-|---2h3p2-|1
|-0-------3-0-------------0-3h5----|-3-------|-3-------|
|
|
|------------------------------------------------------|
|------------------------------------------------------|G
|------------------------------------------------------|t
|------------------------------------------------------|r
|------------------------------------------------------|2
|------------------------------------------------------|


Riff E.1 [2:13]
|-------------------------------------------------------------------------------|G
|-------------------------------------------------------------------------------|t
|-------------------------------------------------------------------------------|r
|--------5-----2--3----------5-------------------5-----2--3---2-3-------------5-|1
|-5-2--3-3--5--0--1---5-2--3-3--5--3--2---5-2--3-3--5--0--1---0-1--5-3--2--5--3-|+
|-3-0--1----3---------3-0--1----3--1--0---3-0--1----3--------------3-1--0--3----|2
       .                   .                   .                   . 

Riff E.1 [2.27]
[ Tab from: http://www.guitartabs.cc/tabs/k/kreator/violent_revolution_tab.html ]
Riff E.2 [2:40]
|-------------------------------------------------------------------------------|
|------------------------------12-11--------------------------------------------|G
|/13-11-13-11---------13-11-13-------11---11h13p11~-----------------------------|t
|-------------14-13-------------------------------------------13h14p13~---------|r
|-------------------------------------------------------------------------------|1
|-------------------------------------------------------------------------------|
|
|
|-------------------------------------------------------------------------------|
|-------------------------------------------------------------------------------|G 
|--------5-----2--3----------5-------------------5-----2--3---2-3-------------5-|t
|-5-2--3-3--5--0--1---5-2--3-3--5--3--2---5-2--3-3--5--0--1---0-1--5-3--2--5--3-|r
|-3-0--1----3---------3-0--1----3--1--0---3-0--1----3--------------3-1--0--3----|2
|-------------------------------------------------------------------------------|
|      .                   .                   .                   . 
|
|-------------------------------------------------------------------------------|
|---------------------8-6~-8-6~-----------8-6~-8-6~-----------8-6~-8-6~---------|G
|--------------------------------8~--7~--------------8~--7~--------------8~--7~-|t
|-------------------------------------------------------------------------------|r
|-------------------------------------------------------------------------------|3
|-------------------------------------------------------------------------------|


Riff E.3 [2:53]
|-------------------------------------------------------------------------------|
|-------------------------------------------------------------------------------|G 
|--------5-----2--3----------5-------------------5-----2--3---2-3-------------5-|t
|-5-2--3-3--5--0--1---5-2--3-3--5--3--2---5-2--3-3--5--0--1---0-1--5-3--2--5--3-|r
|-3-0--1----3---------3-0--1----3--1--0---3-0--1----3--------------3-1--0--3----|2
|-------------------------------------------------------------------------------|
|      .                   .                   .                   . 
| solo
|--------------------------------------------------------------------------------------------------|
|--------------------------------------------------------------------------------------------------|
|--------------------------------------------------------------------------------------------------|
|--------------------------------------------------------------------------------------------------|
|--------------------------------------------------------------------------------------------------|
|--------------------------------------------------------------------------------------------------|


Riff A.1 [3:07]
Riff A.2 [3:13] 
Riff A.1 [3:20]
Riff A.2 [3:27]
Riff C   [3:33]
Riff C   [3:46]

Riff F [4:00]
|-12~----10~-----------------------12~----10~-----------------------|
|---------------13~---10~------------------------13~----------------|G
|---------------------------10h12----------------------10~----10h12-|t
|-------------------------------------------------------------------|r
|-------------------------------------------------------------------|1
|-------------------------------------------------------------------|
|
|
|-------------------------------------------------------------------|
|-------------------------------------------------------------------|G
|-------------------------------------------------------------------|t
|-----------------------------------------------------------------2-|r
|------7-------7-------7-------7-5------3-------3-------3-------3-0-|2
|-5555-5--5555-5--5555-5--5555-5-3-1111-1--1111-1--1111-1--1111-1---|
  ....    ....    ....    ....     ....    ....    ....    .... 

|-12~----10~-----------------------------------------------------|
|---------------13~---12~----------------------------------------|G
|---------------------------12-12h14-14~-------------------------|t
|-----------------------------------------12"17"15"14-12"17"15"14|r
|----------------------------------------------------------------|1
|----------------------------------------------------------------|
|                                          .....................  
|
|----------------------------------------------------------------|
|----------------------------------------------------------------|G
|----------------------------------------------------------------|t
|----------------------------------------------------------------|r
|------5-------5-------6-------6-------7-------7-------7-------7-|2
|-3333-3--3333-3--4444-4--4444-4--5555-5--5555-5--5555-5--5555-5-|
  ....    ....    ....    ....    ....    ....    ....    ....

|-12~----10~-----------------------12~----10~-----------------------|
|---------------13~---10~------------------------13~----------------|G
|---------------------------10h12----------------------10~----10h12-|t
|-------------------------------------------------------------------|r
|-------------------------------------------------------------------|1
|-------------------------------------------------------------------|
|
|
|-------------------------------------------------------------------|
|-------------------------------------------------------------------|G
|-------------------------------------------------------------------|t
|-----------------------------------------------------------------2-|r
|------7-------7-------7-------7-5------3-------3-------3-------3-0-|2
|-5555-5--5555-5--5555-5--5555-5-3-1111-1--1111-1--1111-1--1111-1---|
  ....    ....    ....    ....     ....    ....    ....    .... 

|-12~----10~-----------------------------------------------------|
|---------------13~---12~----------------------------------------|G
|---------------------------12-12h14-14~-------------------------|t
|----------------------------------------------------------------|r
|----------------------------------------------------------------|1
|----------------------------------------------------------------|
|                                        
|
|----------------------------------------------------------------|
|----------------------------------------------------------------|G
|----------------------------------------------------------------|t
|----------------------------------------------------------------|r
|------5-------5-------6-------6-------7-------7-------7-------7-|2
|-3333-3--3333-3--4444-4--4444-4--5555-5--5555-5--5555-5--5555-5-|
  ....    ....    ....    ....    ....    ....    ....    ....


Riff G [4:26]
Comments