Kreator - Servant In Heaven King In Hell Chords & Tabs

 

Servant In Heaven King In Hell Chords & Tabs

Kreator Chords & Tabs

Version: 1 Type: Tab 0 ratings
1 star 2 stars 3 stars 4 stars 5 stars
comments

Servant In Heaven King In Hell Tab

   
Kreator - "Servant in Heaven / King in Hell"
From album "Violent Revolution"

Tabbed by Andreas Larsson (johnnyballe666@hotmail.com)


Drop-D tuning

 ||----||
*||----||*  <= repeat
*||----||*
 ||----||


Base theme-intro

G ||--------------------------------|
D*||--------------------------------|
A*||5---5557--8--7--5---5557--8--7--|
D ||--------------------------------|

  G --------------------------------|
  D -------3--2--0---------3--2--0--|
  A 1---111---------1---111---------|
  D --------------------------------|

  G --------------------------------|
  D ----------3--5------------3--5--|
  A 3---3337--------3---3337--------|
  D --------------------------------|

  G --------------------------------||
  D --------------------------------||*
  A --------------------------------||*
  D 5---5555--5--8--8--8--10-10-10--||


Guitar intro

e ||----------------------------------------------------------------|
B ||----------------------------------------------------------------|
G*||----------------------------------------------------------------|
D*||------------7-----8(let ring)-8-------------7-----8--10-7p8h7---|
A ||------5-------------------------------5-----------------------8-|
D ||0-------------------------------0-------------------------------|

  e ----------------------------------------------------------------||
  B ----------------------------------------------------------------||
  G ----------------------------------------------------------------||*
  D ------------7-----8(downslide)--------2-----5-----3-----2--3h2--||*
  A ------5-------------------------3-----------------------------3-||
  D 0---------------------------------------------------------------||

  e|----------------------------------------------------------------|
  B|----------------------------------------------------------------|
  G|----------------------------------------------------------------|
  D|------0-----3-----1-----0--1h0----------------------------------|
  A|1-----------------------------1-0-----4-----7-----5-----4--5h47-|
  D|----------------------------------------------------------------|


Intro part 2 / Chorus (do not repeat pattern in chorus)

e ||----------------------------------------------------------------|
B ||----------------------------------------------------------------|
G*||----------------------------------------------------------------|
D*||---------------------------3-----------------5-----5--6--5------|
A ||5-----6--5--3--5-----6--5-----5-----6--5--6-----6-----------6---|
D ||---000------------000------------000----------------------------|

  e ----------------------------------------------------------------||
  B ----------------------------------------------------------------||
  G ----------------------------------------------------------------||*
  D ---------------------------3-----------------5-----5--6(ring)---||*
  A 5-----6--5--3--5-----6--5-----5-----6--5--6-----6---------------||
  D ---000------------000------------000----------------------------||


Verse

e ||----------------------------------------------------------|
B ||----------------------------------------------------------|
G*||----------------------------------------------------------|
D*||----------------------------------------------------------|
A ||-------------------------------------------------1--0--3--|
D ||0--00000--00000--00000--00000--00000--00000--00001--0--3--|

  e ----------------------------------------------------------||
  B ----------------------------------------------------------||
  G ----------------------------------------------------------||*
  D ----------------------------------------------------------||*
  A -----------------------------------1--0--1--3--1--3--6----||
  D 0--00000--00000--00000--00000--00001--0--1--3--1--3--6----||


Bridge

e ||----------------------------------------------------------||
B ||----------------------------------------------------------||
G*||----------------------------------------------------------||*
D*||---------------------------------------------------------3||*
A ||---------------------5--3--1--0-----6--5--3--5-----6--5---||
D ||3--33333--33333--33335--3--1--0--000------------000-------||

 e |-----------------------------------------------------------|
 B |-----------------------------------------------------------|
 G |-----------------------------------------------------------|
 D |---------------------------------------------------------3-|
 A |---------------------5--3--1--0-----6--5--3--5-----6--5----|
 D |1--11111--11111--11115--3--1--0--000------------000--------|

  e --------------------------------|
  B --------------------------------|
  G --------------------------------|
  D -----------------------5--3-----|
  A --------------5(mute)--------6--|
  D 1--11111--11115( "" )-----------|


*Chorus*

*Verse*

*Bridge*


Break lead (double timing)
[ Tab from: http://www.guitartabs.cc/tabs/k/kreator/servant_in_heaven_king_in_hell_tab.html ]
    x3
 e |-------------------------------------------------|
 B |-------------------------------------------------|
 G |-------------15-14-12----14-12-------12----------|
 D |-12-15-14-15----------15-------15-14----15-14-12-|
 A |-------------------------------------------------|
 D |-------------------------------------------------|

e ||-------------------------------------------------||
B ||-------------------------------------------------||
G*||-------------------------------------------------||*
D*||----12-14-15-14-15-14-12----12-14-15-14-15-14-12-||*
A ||-12----------------------12----------------------||
D ||-------------------------------------------------||


Break background

e ||----------------------------------------------------------------|
B ||----------------------------------------------------------------|
G*||----------------------------------------------------------------|
D*||----------------------------------------------------------------|
A ||-----------------5-7----5-7----------------------5-7----755-----|
D ||-0-0-0-0-0-0-0-0-5-7----5-7------0-0-0-0-0-0-0-0-5-7----755-----|

  e ----------------------------------------------------------------||
  B ----------------------------------------------------------------||
  G ----------------------------------------------------------------||*
  D ----------------------------------------------------------------||*
  A -----------------5-7----5-7----------------------1-3----3-2-----||
  D -0-0-0-0-0-0-0-0-5-7----5-7------3-3-3-3-3-3-3-3-1-3----3-2-----||


Break verse

e ||----------------------------------------------------------------||
B ||----------------------------------------------------------------||
G*||----------------------------------------------------------------||*
D*||----------------------------------------------------------------||*
A ||-------------------------------------------------5-7----5-7-----||
D ||-5-5-5-5-5-5-5-5-5-5-5-5-5-5-5-5-0-0-0-0-0-0-0-0-5-7----5-7-----||

 e |----------------------------------------------------------------|
 B |----------------------------------------------------------------|
 G |----------------------------------------------------------------|
 D |----------------------------------------------------------------|
 A |-------------------------------------------------5-7----5-7-----|
 D |-3-3-3-3-3-3-3-3-3-3-3-3-3-3-3-3-0-0-0-0-0-0-0-0-5-7----5-7-----|

  e ---------------------------------|
  B ---------------------------------|
  G ---------------------------------|
  D ---------------------------------|
  A ---------------------------------|
  D -3-3-3-3-3-3-3-3-3-3-3-3-3-3-3-3-|


*Guitar intro*


Solo background

e ||-------------------------------------------------|
B ||-------------------------------------------------|
G*||-------------------------------------------------|
D*||-------------------------------------------------|
A ||0-----0-----0-----0-----6-----6-----6-----6------|
D ||0-00000-00000-00000-00006-66666-66666-66666-6666-|

  e ------------------------------------------------||
  B ------------------------------------------------||
  G ------------------------------------------------||*
  D ------------------------------------------------||*
  A 3-----3-----3-----3-----2-----2-----1-----1-----||
  D 3-33333-33333-33333-33332-22222-22221-11111-1111||


Guitar theme-riff (double timing)

e ||--------------------------------------------------------------|
B ||--------------------------------------------------------------|
G*||--------------------------------------------------------------|
D*||10---10-10-10---12---13---12---10---10-10-10---12---13---12---|
A ||--------------------------------------------------------------|
D ||--------------------------------------------------------------|

  e --------------------------------------------------------------|
  B --------------------------------------------------------------|
  G ----------------8----7----5--------------------8----7----5----|
  D 6----6--6--6-------------------6----6--6--6-------------------|
  A --------------------------------------------------------------|
  D --------------------------------------------------------------|

  e --------------------------------------------------------------|
  B --------------------------------------------------------------|
  G ---------------------8----10------------------------8----10---|
  D 8----8--8--8----12-------------8----8--8--8----12-------------|
  A --------------------------------------------------------------|
  D --------------------------------------------------------------|

  e --------------------------------------------------------------||
  B --------------------------------------------------------------||
  G --------------------------------------------------------------||*
  D --------------------------------------------------------------||*
  A 3-------------------5-------6-------5------------8------------||
  D 3-------------------5-------6-------5------------8------------||


*Solo background*

*Bridge*

*Intro part 2*
Comments