Kreator - Riot Of Violence Chords & Tabs

 

Riot Of Violence Chords & Tabs

Kreator Chords & Tabs

Version: 1 Type: Tab 0 ratings
1 star 2 stars 3 stars 4 stars 5 stars
comments

Riot Of Violence Tab

Artist: Kreator
Song: Riot Of Violence
Album: Pleasure To Kill
Year: 1986

Tabbed by Jori Merilainen, send any corrections, suggestions
or questions to: Thrasher_0682@yahoo.com

Tune down one whole step (DGCFAd)

Ventor wrote this kick-ass mosh-out tune, which is also
a fucking Kreator-classic. Again, from the fantastic
Pleasure To Kill album :)

1) Intro:
F|-----------------------------------------|
C|-------------------5---------------------|
G|-------------------3------------------5--|
D|--0-0230-0230-0230---0-0230-0230-0230-3--|
    . .... .... ....   . .... .... .... *2nd time let ring

2) Verse:
F|--------------------------------|
C|--------3-----------------5--3--|
G|--------1-----2-----3-----3--1--|
D|--0-0-0---0-0-0-0-0-1-0-0-------|
    . . .   . .   . .   . .

3) Fill 1:           
F|--------------<5>__------*w/bar-|
C|--------3----------\----/-------|
G|--------1-----------\__/--------|
D|--0-0-0---0-0-------------------|
    . . .   . .   

4a) Pre-chorus:
F|--------------------------------------------*--|
C|--3------3------2------2------3------3------2--|
G|--1--1-1-1--1-1-0--0-0-0--0-0-1--1-1-1--1-1-0--|
D|-----.-.----.-.----.-.----.-.----.-.----.-.----|
*the last A5 chord is played by the second guitar,
while the other starts to play Fill 2.

4b) Fill 2:
d|-------------------|
A|--------------3-2--|
F|--3-2-0-5-3-2------|
C|-------------------|

5a) Bridge:
d|-----------------------------------|
A|----------------5------------------|
F|----5-4---7-5-------5-4---7-5-4-0--|
C|--0-----0-----0---0-----0----------|
G|--.-----.-----.---.----.-----------|
D|-----------------------------------|
5b)(palm mute all the way)
d|-----------------------------------|
A|-----------------------------------|
F|-----------------------------------|
C|----5-4---7-5-4-0---5-4---7-5------|
G|--0-----0---------0-----0-----3-2--|
D|-----------------------------------|

6) Chorus:
F|------------------------------------------------|
C|--4--4----4--5--2--7--5--4--4----4--5--2--4--5--|
G|--2--2--222--3--0--5--4--2--2--222--3--0--2--3--|
D|------------------------------------------------|
[ Tab from: http://www.guitartabs.cc/tabs/k/kreator/riot_of_violence_tab.html ]
7) Post-chorus:
F|--------4-------4-------4-----5-4--|
C|--0000002-0000002-0000002-5-4-3-2--|
G|--......--......--......--3-2------|
D|-----------------------------------|

8) Fill 3:
F|---------------------------|
C|--------3------_-----------|
G|--------1-----2-\_---------|
D|--0-0-0---0-0-0---\*w/bar--|
    . . .   . .

9) Fill 4:
d|---------------------|
A|--------------3-2----|
F|--3-2-0-5-3-2-----3--|
C|---------------------|

10a) Middle-section:
F|------------------------------------------------------------|
C|------------------------------------------------------------|
G|--4------4------4--------5---4------4------3-2-0-5-3-2------|
D|--2--2-2-2--2-2-2--2-2-2-3---2--2-2-2--2-2-------------3-2--|
       . .    . .    . . .        . .    . . . . . . . . . .
10b)
(palm-mute all the way)
F|--------------------------------------------------|
C|------3322----1111111111----3322------------------|
G|--0000----0033----------0000----0022333333--------|
D|------------------------------------------333333--|

11) Solo rhytms:
F|---------------|------|--------------|------|
C|---------------|------|-----------5--|------|
G|--222222223322-|-%%-|-00000000003--|-%%-|
D|--............-|------|-..........---|------|

12) Interlude: "On a field littered with corpses..."
F|-----------<7>----------|
C|----*----------<7>------|
G|--2-2--------------<7>--|
D|--0-0-------------------|
*other guitar lets this ring.

13a) Bridge 2:
F|---------------------------------------------|
C|--9-9r--10r--9r--12-10-9-9r--10r--9r--12-10--|
G|--7-7r---8r--7r--10--8-7-7r---8r--7r--10--8--|
D|---------------------------------------------|
13b)
F|---------------------------------------------|
C|--9-9---10---9---12-10-9-9---10---9---12-10--|
G|--7-7----8---7---10--8-7-7----8---7---10--8--|
D|------00---00--00----------00---00--00-------|
        ..   ..  ..          ..   ..  ..

14) Outro:
First let ring a D5-chord for a while, then:
(the rhytm here is somewhat difficult to catch,
but just listen the song and you should get the idea)
F|--3p2h3p2-------------------------7\\\\--|
C|---------3p2h3p2-5-3-2------------9\\\\--|
G|-----------------------3-----------------|
D|-------------------------0-0-0-0-0-------|
			   . . . . .

THE END.
Comments