Kreator - Pleasure To Kill Chords & Tabs

 

Pleasure To Kill Chords & Tabs

Kreator Chords & Tabs

Version: 2 Type: Tab 0 ratings
1 star 2 stars 3 stars 4 stars 5 stars
comments

Pleasure To Kill Tab

   
     Pleasure to kill(From live Kreation)-Kreator

Transcribed by:kreatorrules

p=pull of
h=hummer on
.=palm mute

Tempo=175

Play Riff A 8 times
Play Riff B 4 times
Play Riff A 6 times
Play Riff B 4 times
Play riff C 10 times
Play riff D 3 times
Play riff E 1 time

Riff A
4/4                                                3/4
-------------------------|------------------------|---------------|
-------------------------|------------------------|---------------|
-------------------------|------------------------|---------------|
-------------------------|------------------------|---------------|
-------------------------|------------------------|--9-9-910-9-7--|
--0000-0000-0000-12h1300-|-11h1200-0000-0000-0000-|--7-7-7-8-7-5--|
[ Tab from: http://www.guitartabs.cc/tabs/k/kreator/pleasure_to_kill_tab_ver_2.html ]
Riff B
4/4
-------------------------|---------------------|--------------------|
-------------------------|---------------------|--------------------|
-------------------------|---------------------|--------------------|
---8-------8------8------|----8------8-------8-|------8-------5-6-7-|
---6-66-66-6-6666-6-66---|-66-6-6666-6-66-66-6-|-6666-6-66-66-3-4-5-|
-------------------------|---------------------|--------------------|
                                                              . . .

3/4
-------------------------|
-------------------------|
---5-4-------------------|
---5-4-5-----------------|
---3-2-5-----------------|
-------3-----------------|

Riff C

--------------|------------------------|
--------------|------------------------|
--------------|------------------------|
-------9----7-|------9----7---5---5----|
-------7----5-|------7-00-5---3-5-4----|
--0000---00---|-0000------------3------|
  ....   ..     ....   ..

Riff D

---------------------|---------------------|
---------------------|---------------------|
---------------------|---------------------|
---------------------|---------------------|
---------3---------3-|---------3-532-------|
-0000-023--0000-023--|-0000-023------3-2532|

Riff E

---------------------|--------------|
---------------------|--------------|
---------------------|--------------|
---------------------|--------------|
---------3-532-------|-----------2--|
-0000-023-----3-2353-|-5320-3232-0--|
Comments