Kravitz Lenny - Mr Cab Driver Complete Chords & Tabs

 

Mr Cab Driver Complete Chords & Tabs

Kravitz Lenny Chords & Tabs

Version: 1 Type: Tab 0 ratings
1 star 2 stars 3 stars 4 stars 5 stars
comments

Mr Cab Driver Complete Tab

Mr. Cab Driver 
Lenny Kravitz
From "Let Love Rule"
Tab Transcription by Luis Galicia
10 July 2003

          This is the complete tab of this great song.

Main Riff
e-------------------|------------------|
B-------------------|------------------|
G-------------------|------------------|
D-------------------|------------------|
A--7--7-7-5----5----|-7--7-7-5----5----|
E--5--5-5-3--0-3-0--|-5--5-5-3--0-3-0--|

Intro

Main Riff x2

Verse

Play all This Twice
 
e-------------------|------------------|
B-------------------|------------------|
G-------------------|------------------|
D-------------------|-7-7-9-7-7-7-9-7--|
A--7-7-9-7-7-7-9-7--|-5-5-5-5-5-5-5-5--|
E--5-5-5-5-5-5-5-5--|------------------|

Main Riff x1

e-------------------|------------------|
B-------------------|------------------|
G-------------------|------------------|
D--7-7-9-7-7-7-9-7--|-7-7-9-7-7-7-9-7--|
A--5-5-5-5-5-5-5-5--|-5-5-5-5-5-5-5-5--|
E-------------------|------------------|

Main Riff x1

e---------------------|------------------|
B---------------------|------------------|
G---------------------|------------------|
D--9-9-11-9-9-9-11-9--|-7-7-9-7-7-7-9-7--|
A--7-7-7--7-7-7-7--7--|-5-5-5-5-5-5-5-5--|
E---------------------|------------------|

Main Riff x1

Bridge

e-----------------------------------|-----------------------------------|
B-----------------------------------|-----------------------------------|
G-----------------------------------|-----------------------------------|
D--7-7-9-7-7-7-9-7--7-7-9-7-7-7-9-7-|-----------------------------------|
A--5-5-5-5-5-5-5-5--5-5-5-5-5-5-5-5-|--7-7-9-7-7-7-9-7--7-7-9-7-7-7-9-7-|
E-----------------------------------|--5-5-5-5-5-5-5-5--5-5-5-5-5-5-5-5-|



e-----------------------------------|--------------------------------------------------|
B-----------------------------------|----------------------9-9-9-9-9-9-9-9-9-9-9-9-9-9-|
G-----------------------------------|--------------------9-9-9-9-9-9-9-9-9-9-9-9-9-9-9-|  
D--7-7-9-7-7-7-9-7--7-7-9-7-7-7-9-7-|----------------9-9-9-9-9-9-9-9-8-8-8-8-8-8-8-8-8-|
A--5-5-5-5-5-5-5-5--5-5-5-5-5-5-5-5-|9-9-9-9-9-9-9-9-7-7-7-7-7-7-7-7-9-9-9-9-9-9-9-9-9-|
E-----------------------------------|7-7-7-7-7-7-7-7-----------------------------------|

*In the end of the bridge you can play just E and also sounds good.

Chorus

4 times
e--------------------------------|
B--------------------------------|
G--------------------------------|
D--------------------------------|
A--7-7-9-7-7-7-9-7-7-7---5---5---|
E--5-5-5-5-5-5-5-5-5-5-0-3-0-3-0-|

Second part

Repeat all since the verse till the bridge and before the chorus play this:
[ Tab from: http://www.guitartabs.cc/tabs/k/kravitz_lenny/mr_cab_driver_complete_tab.html ]
e-------------------------------------|--------------------------------------|
B-------------------------------------|--------------------9-9-9-9-9-9-9-9-9-|
G-------------------------------------|--------------------9-9-9-9-9-9-9-9-9-|
D--7-7-9-7-7-7-9-7--------------------|-9-9-11-9-9-9-11-9--8-8-8-8-8-8-8-8-8-|
A--5-5-5-5-5-5-5-5--9-9-11-9-9-9-11-9-|-7-7-7--7-7-7-7--7--9-9-9-9-9-9-9-9-9-|
E-------------------7-7-7--7-7-7-7--7-|--------------------------------------| 

Then Play The Chorus

Solo
                                                 
Behind the solo goes the verse part.

e--------------------------------|------------------------------------|  
B------------------------7~-5----|-------------------------------5----|
G-7b8r7-5----------------7~-5-7--|-7b8-7b8-7b8r7-5---------------5-7--| 
D---------7~-5---7~-5---------7--|-----------------7~-5---7~-5-----7--| 
A--------------7------7----------|----------------------7------7------| 
E--------------------------------|------------------------------------| 

e---------------------------------------|-------------------------------------| 
B-------------------------------7~-5----|--5-7-7b8r7-5----------------7~-5----|   
G-7b8-7b8-7b8r7-5---------------7~-5-7--|-----------------------------7~-5-7--|
D-----------------7~-5---7~-5--------7--|--------------7~-5---7~-5---------7--|
A----------------------7------7---------|-------------------7------7----------|
E---------------------------------------|-------------------------------------|

e-----------------------------------|--5---------------------------------|  
B---------------------------7~-5----|----7-5~--------------------7~-5----|  
G-5-7-7b8r7-5---------------7~-5-7--|---------7-5----------------7~-5-7--| 
D-------------7~-5---7~-5--------7--|-------------7~-5---7~-5---------7--|  
A------------------7------7---------|------------------7------7----------|     
E-----------------------------------|------------------------------------|

Outro

e-------------------------------|----------------------|
B---8-----8-----8-----7----5----|-5---5---5---3---1----|
G--11b12-11b12-11b12-10b11-8b9--|-8b9-8b9-8b9-6b7-4b5--| 
D-------------------------------|----------------------|
A-------------------------------|----------------------|
E-------------------------------|----------------------|

Behind this goes:

2 times
e--------------------------------|-----------------------------------|
B--------------------------------|-----------------------------------|
G--------------------------------|-----------------------------------|
D--------------------------------|-----------------------------------|
A--7-7-9-7-7-7-9-7-7-7---5---5---|-7-7-9-7-7-7-9-7-7-7---10-10-10-10-|
E--5-5-5-5-5-5-5-5-5-5-0-3-0-3-0-|-5-5-5-5-5-5-5-5-5-5-0--8--8--8--8-|

1 time
e--------------------------------|-------|
B--------------------------------|-------|
G--------------------------------|-------|
D--------------------------------|-------|
A--7-7-9-7-7-7-9-7-7-7---5---5---|-5---5-|
E--5-5-5-5-5-5-5-5-5-5-0-3-0-3-0-|-7---7-|

This is a great song, Enjoy!
Dedicated to J.





Comments