Kravitz Lenny - Fly Away Chords & Tabs

 

Fly Away Chords & Tabs

Kravitz Lenny Chords & Tabs

Version: 4 Type: Tab 1 rating
1 star 2 stars 3 stars 4 stars 5 stars
comments

Fly Away Tab

   
#----------------------------------PLEASE NOTE---------------------------------#
#This file is the author's own work and represents their interpretation of the #
#song. You may only use this file for private study, scholarship, or research. #
#------------------------------------------------------------------------------#

Artist: Lenny Kravitz
Song: Fly Away
Tabbed by: John Leadman
   
[ Tab from: http://www.guitartabs.cc/tabs/k/kravitz_lenny/fly_away_tab_ver_4.html ]
   
   CHORDS:
   -------                 
      EADGBE 
   A (5776xx)
   B (7998xx) 
   C (8 10 10 9 x x)  
   G (3554xx)
   D (x5777x)
   
   The chord progression for the whole song is  A  B C  G  D.
   B is just a transition chord, it is played very briefly.
   
   Here's the rhythm tabbed out for you.
   D = downstrokes
   u = upstrokes
   x = muted note
   
      A                 B     C
   E|-------------------------------------------------
   B|-------------------------------------------------
   G|-6-----6--6--6--6--8-----9-----9--9--9--9--x--x--
   D|-7-----7--7--7--7--9-----10----10-10-10-10-x--x--
   A|-7-----7--7--7--7--9-----10----10-10-10-10-x--x--
   E|-5-----5--5--5--5--7-----8-----8--8--8--8--x--x--
      1  &  2  &  3  &  4  &  1  &  2  &  3  &  4  &  
      D     D  u  D  u  D     D     D  u  D  u  D  u
   
   
      G                       D
   E--------------------------------------------------|
   B--------------------------7-----7--7--7--7--x--x--|
   G--4-----4--4--4--4--x--x--7-----7--7--7--7--x--x--|
   D--5-----5--5--5--5--x--x--7-----7--7--7--7--x--x--|
   A--5-----5--5--5--5--x--x--5-----5--5--5--5--x--x--|
   E--3-----3--3--3--3--x--x--------------------------|
      1  &  2  &  3  &  4  &  1  &  2  &  3  &  4  &  
      D     D  u  D  u  D  u  D     D  u  D  u  D  u
   
   
   
   Then in the verses, the bridge and some of the choruses
   the bass plays this: (With heavy WAH-WAH)
   (Actually this is a guitar I think, but I'm not really sure)
   / = slide up
   
      A           C           G         D
   G|------------------------------------------7----|
   D|-------7-----------10----------5---------------|
   A|------------------------------------4/5-x------|
   E|-4/5-x-------7/8-x-------2/3-x-----------------|
   
   Or maybe it should be like this:
   (I'm not really sure, it's kind of hard to hear
   because of the Wah-Wah)
   
      A           C           G         D
   G|------------------------------------------7----|
   D|-------7-----------10----------5---------------|
   A|------------------------------------3/4/5------|
   E|-3/4/5-------6/7/8-------1/2/3-----------------|
   
   
   INTRO:
   ------
   A   B C   G    D (x2)




Comments