Kravitz Lenny - Fly Away Chords & Tabs

 

Fly Away Chords & Tabs

Kravitz Lenny Chords & Tabs

Version: 1 Type: Tab 0 ratings
1 star 2 stars 3 stars 4 stars 5 stars
comments

Fly Away Tab

This song originaly is a little different from the versions we can find in net.
If we want to play the song exactly like
Lenny do, we just take the fingers as in a chord F and move 
them on the fretboard in the following frets:

F:  |5  7/8|
    |3  10 |

This song is played in BigBeat.

In TAB it looks like it:
[ Tab from: http://www.guitartabs.cc/tabs/k/kravitz_lenny/fly_away_tab.html ]
| Oh I want  to get away | I want to      fly |  
|-5----------5/6---------|-3-------------10---|
|-5----------5/6---------|-3-------------10---|
|-6----------6/7---------|-4-------------11---|
|-7----------9/10--------|-5-------------12---|
|-7----------9/10--------|-5-------------12---|
|-5----------7/8---------|-3-------------10---|


| away       yeah        | yeah          yeah | 
|-5----------5/6---------|-3-------------10---|
|-5----------5/6---------|-3-------------10---|
|-6----------6/7---------|-4-------------11---|
|-7----------9/10--------|-5-------------12---|
|-7----------9/10--------|-5-------------12---|
|-5----------7/8---------|-3-------------10---|

etc.

Any comments, suggestions? e-mail: zigmars@latnet.lv 
Comments