Kravitz Lenny - Can't Get You Off My Mind Chords & Tabs

 

Can't Get You Off My Mind Chords & Tabs

Kravitz Lenny Chords & Tabs

Version: 2 Type: Tab 0 ratings
1 star 2 stars 3 stars 4 stars 5 stars
comments

Can't Get You Off My Mind Tab

#----------------------------------PLEASE NOTE---------------------------------#
#This file is the author's own work and represents their interpretation of the #
#song. You may only use this file for private study, scholarship, or research. #
#------------------------------------------------------------------------------##
Date: Sun, 29 Oct 1995 14:58:35 -0800
From: guitarz@ix.netcom.com (Steve )
Subject: TAB:  Cant get you off my mind by Lenny Kravitz

Album: Circus
Artist: Lenny Kravitz
Song:  Can't get you off my mind
Transcribed by Steve Dooley (guitarz@ix.netcom.com

Riff 1                          Riff 1A
---3----------3---------------------------------------------------|E
---0----------0---------------------------------------------------|B
---0----------0---------------------------------------------------|G
---0----------0----------------------------------0-------2--------|D
---2--0---2---2-------------------0-----2-------------------------|A
---3----------3------3------3-------------------------------------|E


Riff 2
------------------------------------------------5--h--7---------|E
--5--5--\--4--/--5-------5---5--\--4--/--5------5---------------|B
--5--5--\--4--/--5-------5---5--\--4--/--5------5---------------|G
--7--------------------------7------------------7---------------|D
--0--------------------------0------------------0---------------|A
----------------------------------------------------------------|E


Riff 3
------------------------8--\--7--/--8------12--\--11--/--12------3---|E
--5--5--\--4--/--5------8--\--7--/--8------13--\--12--/--13------0---|B
--5--5--\--4--/--5-----------------------------------------------0---|G
--7--------------------------------------------------------------0---|D
--0--------------------------------------------------------------2---|A
-----------------------------------------------------------------3---|E


Riff 4
----------------------------------------------------------------|E
----------------------------------------------------------------|B
---2------0------------------------------0----------------------|G
-----------------4------0-------2-----------------2---------0---|D
----------------------------------------------------------------|A
----------------------------------------------------------------|E


Riff 5
---------------------8-\-7-/-8-----12-\-11-/-12---15-\-14-/-15--|E
--5-5-\-4-/-5--------8-\-7-/-8-----13-\-12-/-13---13-\-12-/-13--|B
--5-5-\-4-/-5---------------------------------------------------|G
--7-------------------------------------------------------------|D
--0-------------------------------------------------------------|A
----------------------------------------------------------------|E



Chorus
----------0---------------------2----2----2----2----3----2---|E
----------1---------------------3----3----3----3----3----3---|B
----------0---------------------2----2----2----2----2----2---|G
----------2-----0----2-----0----0----0----0----0----0----0---|D
--0---2---3--------------------------------------------------|A
-------------------------------------------------------------|E


[ Tab from: http://www.guitartabs.cc/tabs/k/kravitz_lenny/cant_get_you_off_my_mind_tab_ver_2.html ]
----------0---------------------2----2----2----2----0----2---|E
----------1---------------------3----3----3----3----3----3---|B
----------0---------------------2----2----2----2----2----2---|G
----------2-----0----2-----0----0----0----0----0----0----0---|D
--0---2---3--------------------------------------------------|A
-------------------------------------------------------------|E


----------0--------------------------------2-------0--------3----|E
----------1--------------------------------3-------1--------0----|B
----------0--------------------------------2-------0--------0----|G
----------2--------------------------------0-------2--------0----|D
--0---2---3------3----3----2-----0-----------------3--------2----|A
--------------------------------------3---------------------3----|E



Riff 6
----------3-----------------------8-\-7-/-8-----12-\-11-/-12--|E
----------0----5--5-\-4-/-5-------8-\-7-/-8-----13-\-12-/-13--|B
----------0----5--5-\-4-/-5-----------------------------------|G
----------0----7----------------------------------------------|D
--0---2---2----0----------------------------------------------|A
----------3---------------------------------------------------|E


----15-\-14-/-15-----15-h-17--------3----------|E
----13-\-12-/-13-----13-------------0----------|B
---------------------12-------------0----------|G
----------------------x-------------0----------|D
------------------------------------2----------|A
------------------------------------3----------|E


Riff 7 (Repeat 3 times)
-------------------------------7--------------------|E
------------8------------8-------------8------------|B
-------7----------7---------------------------7-----|G
--0-------------------------------------------------|D
----------------------------------------------------|A
----------------------------------------------------|E


Riff 8
----------------------|E
------1---------------|B
------2---------------|G
------0---------------|D
------3---------------|A
----------------------|E

The Solo
                    hold bend and release with ~ listen to music
E------------------------------------10-----------10-----------|
B------------------8---10---10B(12)------10r(11)-------10r(11)-|
G-Slide Up-/-9-------------------------------------------------|
D--------------------------------------------------------------|

E--------------------------------10b(12)--10--8--10----------|
B-10b(12)r(10)-p--8-h-10b(12)-~-----------------------10~----|
G------------------------------------------------------------|
D------------------------------------------------------------|

E------------------------------------------------------12---|
B-------------10------10-------------------8--10b(12)-------|
G-8-----8-------------------8----8---9----------------------|
D-----------------------------------------------------------|

E-7--10b(12)r(10)--10b(12)r(10)--10-~--14b(16)r(14)--14b(16)r(14)-|
B-----------------------------------------------------------------|
G-----------------------------------------------------------------|
D-----------------------------------------------------------------|

E-17b--15-h-17-p-15---------12---15--12----15---17b(19)--|
B---------------------15---------------------------------|
G--------------------------------------------------------|
D--------------------------------------------------------|

E-17b(19)-----15----15b--12---15----15----12----17----12-----|
B------------13----------------------------------------------|
G-----------12-----------------------------------------------|
D------------------------------------------------------------|

E--15b(17)----15b(17)r(15)~----------|
B------------------------------------|
G------------------------------------|
Comments