Kravitz Lenny - Believe Chords & Tabs

 

Believe Chords & Tabs

Kravitz Lenny Chords & Tabs

Version: 3 Type: Tab 0 ratings
1 star 2 stars 3 stars 4 stars 5 stars
comments

Believe Tab

   
#----------------------------------PLEASE NOTE---------------------------------#
#This file is the author's own work and represents their interpretation of the #
#song. You may only use this file for private study, scholarship, or research. #
#------------------------------------------------------------------------------#

Date: Wed, 20 Sep 1995 21:07:38 GMT
From: Roger Spencer 
Subject: TAB:  BY 

Believe

Written by Lenny Kravitz

:From the album "Are you gonna go my way"

Trans: Matt spencer





   A                      F
e--0---0---0---0---0-0-0-|---------------------|---
a--2---3---2---0---2-0-0-|--0----1---0h1p0-----|---
g--2---2---2---2---2-0-0-|--2---------------2--|---
d--------------------0-0-|--3------------------|---

Fill 1

d------------------------------------
a-----------2---3---2----------------
e--0----4----------------4------0----


Chorus
Fill 1



Outro :   (well some of it)

Chords

Am   F   G   Em  F  Dm  G

  Am      F      GEm   F     DmG
[ Tab from: http://www.guitartabs.cc/tabs/k/kravitz_lenny/believe_tab_ver_3.html ]
e----------------------|----------------------|-----------------|---
b-----------------3----|------------3----5----|------------3----|---
g--2-------2-4-5-----4-|-----2-4-5----------2-|--------------4--|---
d----------------------|----------------------|-----2-4-5-------|---
a----------------------|----------------------|---2-------------|---
e----------------------|----------------------|-----------------|---

   Am   F      G
e---------------------------------|------------------------------|--
b---------------------------------|------------------------------|--
g---2h4p2p0-----------14p12----12-|--14------14-16-17---17Br--16-|--
d----------------/14--------14----|-------14---------------------|--
a---------------------------------|------------------------------|--
e---------------------------------|------------------------------|--

                    Em       F                 Dm        G
e-------------------------------|------------------------|----------
b-------------------15--15Br----|----------------15------|----------
g--------14-16-17------------14-|-------14-16-17-----16--|----------
d-------------------------------|---14-------------------|----------
a-------------------------------|------------------------|----------
e-------------------------------|------------------------|----------


e----------------------
b----------------------
g--------14--12-14-12--
d----------------------
a----------------------
e----------------------


B = Full bend
r = Release
h = Hammer on
P = Pull off
Comments