Kravitz Lenny - Are You Gonna Go My Way? Chords & Tabs

 

Are You Gonna Go My Way? Chords & Tabs

Kravitz Lenny Chords & Tabs

Version: 3 Type: Tab 0 ratings
1 star 2 stars 3 stars 4 stars 5 stars
comments

Are You Gonna Go My Way? Tab

   
#----------------------------------PLEASE NOTE---------------------------------#
#This file is the author's own work and represents their interpretation of the #
#song. You may only use this file for private study, scholarship, or research. #
#------------------------------------------------------------------------------#

Are You Gonna Go My Way? 
by Lenny Kravitz 
-Guitar Tabs-



X = Mute string with left hand finger 
p = pull off (using left hand finger) 
b = bend 
/ = slide up 
  

Opening riff, + beginning lines of the song, 
first 4 times then 5 times with vocals 

    E5  E5    E5    A   G A E/A 
e|--------------------|--------------| 
B|--------------------|--------------| 
G|--1---1-1---1-1---2p|-0-2-/9-------| 
D|--2---2-2---2-2-----|-----/9-------| 
A|--2---2-2---2-2-----|--------------| 
E|--0---0-0---0-0-----|--------------| 

This riff for: 

       Then this one once: 

    E   E     E     A   G A   E5    F5    F#5   G5 
e|----------------------|-------0-0-0--1-1-1--2-2-2--3-3-3--| 
B|----------------------|-------0-0-0--1-1-1--2-2-2--3-3-3--| 
G|--1---1-1---1-1---2---|-0-2---1-1-1--2-2-2--3-3-3--4-4-4--| 
D|--2---2-2---2-2-------|-------2-2-2--3-3-3--4-4-4--5-5-5--| 
A|--2---2-2---2-2-------|-------2-2-2--3-3-3--4-4-4--5-5-5--| 
E|--0---0-0---0-0-------|-------0-0-0--1-1-1--2-2-2--3-3-3--| 
                              |----4/1speed increase----| 

  
  

Then this twice: 
    G5  G5    G5    D       A D  G 
e|------------------------|---------------| 
B|------------------------|---------------| 
G|--4---4-4---4-4---5-----|-2-5-/12-------| 
D|--5---5-5---5-5---------|-----/12-------| 
A|--5---5-5---5-5---------|---------------| 
E|--3---3-3---3-3---------|---------------| 
[ Tab from: http://www.guitartabs.cc/tabs/k/kravitz_lenny/are_you_gonna_go_my_way_tab_ver_3.html ]
      Then this once 
    G5  G5    G5    D   A D   G5     F#5    F5     E5 
e|--------------------|-------3-3-3--2-2-2--1-1-1--0-0-0--| 
B|--------------------|-------3-3-3--2-2-2--1-1-1--0-0-0--| 
G|--4---4-4---4-4---5-|-2-5---4-4-4--3-3-3--2-2-2--1-1-1--| 
D|--5---5-5---5-5-----|-------5-5-5--4-4-4--3-3-3--2-2-2--| 
A|--5---5-5---5-5-----|-------5-5-5--4-4-4--3-3-3--2-2-2--| 
E|--3---3-3---3-3-----|-------3-3-3--2-2-2--1-1-1--0-0-0--| 
                              |----4/1speed increase----| 

       
This twice: 
    E5  E5    E5    A   G A E/A 
e|--------------------|-------------- 
B|--------------------|-------------- 
G|--1---1-1---1-1---2-|-0-2-/9------- 
D|--2---2-2---2-2-----|-----/9------- 
A|--2---2-2---2-2-----|-------------- 
E|--0---0-0---0-0-----|-------------- 

       This once: 
    E   E     E    A   G A   E5    F5    F#5   G5 
e|-------------------|-------0-0-0--1-1-1--2-2-2--3-3-3| 
B|-------------------|-------0-0-0--1-1-1--2-2-2--3-3-3| 
G|-1---1-1---1-1---2-|-0-2---1-1-1--2-2-2--3-3-3--4-4-4| 
D|-2---2-2---2-2-----|-------2-2-2--3-3-3--4-4-4--5-5-5| 
A|-2---2-2---2-2-----|-------2-2-2--3-3-3--4-4-4--5-5-5| 
E|-0---0-0---0-0-----|-------0-0-0--1-1-1--2-2-2--3-3-3| 
                             |----4/1speed increase----| 

    
  Then chorus once: 
    G5                        F#5           F5          E 
e|--------------------|-------------------|-------------0----- 
B|--------------------|-------------------|-------------0----- 
G|--4---4-4---4-4---4-|-4---4-3---3-3---3-|-2---2-2---2-X----- 
D|--5---5-5---5-5---5-|-5---5-4---4-4---4-|-3---3-3---3-2----- 
A|--5---5-5---5-5---5-|-5---5-4---4-4---4-|-3---3-3---3-2----- 
E|--3---3-3---3-3---3-|-3---3-2---2-2---2-|-1---1-1---1-0----- 
                                                       Let e & B ring here! 

                    
  
  Then maybe this four times or so: 
    E5  E5    E5    A     G A E/A 
e|----------------------|------------- 
B|----------------------|------------- 
G|--1---1-1---1-1---2bp-|-0-2-/9------ 
D|--2---2-2---2-2-------|-----/9------ 
A|--2---2-2---2-2-------|------------- 
E|--0---0-0---0-0-------|------------- 
Comments