Kravitz Lenny - Are You Gonna Go My Way? Chords & Tabs

 

Are You Gonna Go My Way? Chords & Tabs

Kravitz Lenny Chords & Tabs

Version: 2 Type: Tab 1 rating
1 star 2 stars 3 stars 4 stars 5 stars
comments

Are You Gonna Go My Way? Tab

   
#----------------------------------PLEASE NOTE---------------------------------#
#This file is the author's own work and represents their interpretation of the #
#song. You may only use this file for private study, scholarship, or research. #
#------------------------------------------------------------------------------#

Artist: Lenny Kravitz
Song: Are you gonna go my way
Tabbed by: John Leadman


G1=Guitar 1
G2=Guitar 2
v=vibrato

            

     Riff 1:  2x 
        |-------------------------------------------3----|
        |-------------------------------------------3----|
  G 1   |-2-^4-^2-p0-------------2-^4-^2-p0--------------|
        |------------2---0-2----------------2---0-2------|
        |------------------------------------------------|
        |--------------0-------0--------------0----------|


    
     Riff 2:  6x 
        |-------------------------------------------3----|
        |-------------------------------------------3----|
  G 1   |-2-^4-^2-p0-------------2-^4-^2-p0--------------|
        |------------2---0-2----------------2---0-2------|
        |------------------------------------------------|
        |--------------0-------0--------------0----------|
        |                                                |
        |                                                |
        |------------------------------------------------|   
        |-10^12^10p8-------------10^12^10p8--------------|   
  G 2   |------------9---7-9----------------9---7-9------|   
        |------------------------------------------------|   
        |------------------------------------------------|   
        |------------------------------------------------|



    Riff 3:  4x 
       |------------------------------------------------|
       |------------------------------------------------|
  G 1  |-2-^4-^2-p0-------------2-^4-^2-p0--------------|
       |------------2---0-2----------------2---0-2------|
       |------------------------------------------------|
       |--------------0-------0--------------0-------0--|

       
        
               3x          
       |-----------------------||-------------------|
       |-----------------------||-------------------|
  G 1  |-5-^7-^5-p3------------||--5---4---3--2--4--|
       |------------5-0-3-5--0-||-------------------|
       |-----------------------||-------------------|
       |-----------------------||-------------------|
                                                   
              3x                             
       |-----------------------||-------------------|
       |-13^15^13p11-----------||-------------------|
  G 2  |------------12--10-12--||--12--10--9--10-12-|
       |-----------------------||-------------------|
       |-----------------------||-------------------|
       |-----------------------||-------------------|

        


    Riff 3    2x

                
    Chorus:
       |----0-------------------0--------------------|
       |----0-------------------0--------------------|
       |----7-------------------6--------------------|
       |----9-------------------7--------------------|
       |---------------------------------------------|
       |---------------------------------------------|
          


       |------------------------------------------|
       |-9-9-7-9---------------------9-9--12-9----|
       |-9-9-7-9---------------------9-9--12-9----|
       |-9-9-7-9---------------------9-9--12-9----|
       |------------------------------------------|
       |------------------------------------------|
            


       |----0---------------0------------------------|
       |----0---------------0------------------------|
       |----7---------------6------------------------|
       |----9---------------7------------------------|
       |---------------------------------------------|
       |---------------------------------------------|
       



       Riff 1    1x

       Riff 2    3x


       Riff 3    4x    
                
                3x 
        |-----------------------||-------------------|
        |-----------------------||-------------------|
        |-5-^7-^5-p3------------||--5---4---3--2--4--|
        |------------5-0-3-5--0-||-------------------|
        |-----------------------||-------------------|
        |-----------------------||-------------------|
                                                    
               3x                     
        |-----------------------||-------------------|
        |-13^15^13p11-----------||--13--12--11-10-12-|
        |------------12--10-12--||-------------------|
        |-----------------------||-------------------|
        |-----------------------||-------------------|
        |-----------------------||-------------------|

        
       Riff 3    2x    


        
     Chorus


     Solo:
              12x in total               ending with:
        |---------------------------------||-----------------|
        |-9-----7-------7-------5-5-7-5---||-----------------|
        |-9-----7-------7-------6-6-7-6---||-----------------|
        |-9-----7-------7-------7-7-7-7---||-----0-1---------|
        |---------------------------------||---4-------------|
        |---------------------------------||-----------------|
        (repeat 4x by itself, then 8x under solo


        
      Outro:

        Riff 2    4x


        |-0----------0-------0-------------0-------|
        |-0----------0-------0-------------0-------|
        |-7----------6-------7-------------6-------|
        |-9----------7-------9-------------7-------|
        |------------------------------------------|
        |------------------------------------------|



        |------------------------------------------|
        |-9-9-7-9---------------------9-9--7--9----|
        |-9-9-7-9---------------------9-9--7--9----|
        |-9-9-7-9---------------------9-9--7--9----|
        |------------------------------------------|
        |------------------------------------------|
        


        |-0---------------0------------------------|
        |-8---------------7------------------------|
        |-7---------------6------------------------|
        |-9---------------8------------------------|
        |------------------------------------------|
        |------------------------------------------|
       


        
[ Tab from: http://www.guitartabs.cc/tabs/k/kravitz_lenny/are_you_gonna_go_my_way_tab_ver_2.html ]
here is another way to play the solo         
 
E-|--------------------------------------------------------------------|
B-|--------------------------------------------------------------------|
G-|----------12h14p12vvvbbb--------------------------------------------|
D-|-14vvvv------------------14p12-12--14-------------------------------|
A-|--------------------------------------12b14--12---------------------|
E-|------------------------------------------------15---12-10-12-12sss-|
                  
E-|-----------------------------------------------------------------------|
B-|------------------------------------------------------17----15s17vvvvv-|
G-|-----------------------9h11b13----9h11p9----9h11sss16----16------------|
D-|------9---11p9----9h11-------------------11----------------------------|
A-|--s11----------11------------------------------------------------------|
E-|-----------------------------------------------------------------------|
                                         
E-|-----------------------------15--17b19vvv--17b19vv-17b19vv-17b19vvv-|
B-|-17vvvvvvvvv19p17vvvv17vv17vvv--------------------------------------|
G-|--------------------------------------------------------------------|
D-|--------------------------------------------------------------------|
A-|--------------------------------------------------------------------|
E-|--------------------------------------------------------------------|
                                                                               
E-|-17b19rb17p15-----------------------------|
B-|--------------17vv-----17vv-----17b20vvv--|
G-|------------------------------------------|
D-|------------------------------------------|
A-|------------------------------------------|
E-|------------------------------------------|
                                                                               
E-|-----------------------------------------------------------------|
B-|--17b20v--17b20v--17b20v--17b20v--17b20v--17b20rb17p15----15--17-|
G-|-------------------------------------------------------16--------|
D-|-----------------------------------------------------------------|
A-|-----------------------------------------------------------------|
E-|-----------------------------------------------------------------|

E-|---------------------------------12----------12----------------|
B-|------------------------------------12-15b17----15p12----------|
G-|-16p14p12----12h14p12-----14b16-----------------------14p12----|
D-|----------14----------14------------------------------------14-|
A-|---------------------------------------------------------------|
E-|---------------------------------------------------------------|
                                                                               
E-|-12----------12--------------------------|
B-|----12-15b17----15p12--------------15p12-|
G-|----------------------14p12--14b16-------|
D-|-----------------------------------------|
A-|-----------------------------------------|
E-|-----------------------------------------|

E-|-------12-------12--------15p12----12------------------------------|
B-|-15b17----15b17----15b17--------15------15p12----15--12------------|
G-|----------------------------------------------14---------14p12--14-|
D-|-------------------------------------------------------------------|
A-|-------------------------------------------------------------------|
E-|-------------------------------------------------------------------|
                                                 
E-|-----------------------------|
B-|-----------------------------|
G-|-12b14rb12p9---12vvvvvvvvvv--|
D-|-----------------------------|
A-|-----------------------------|
E-|-----------------------------|
                               



here is another version of the song

                                                
(Riff a) Full                                           Full          
-||--------------------------------------------------|----------------
-||--------------------------------------------------|----------------
-||*------2-----(2)p0--------------------------------|---2-----(2)----
-||*-------------------2-----------0-----2-----------|----------------
-||--------------------------------------------------|----------------
-||--------------------------0--------------------0--|----------------
                                                                      

                                  (w/ Riff a)    Full                 
----------------------------3--3---||---------------------------------
----------------------------3--3---||---------------------------------
p0---------------------------------||*------------14-----(14)p12------
----2-----------0-----2------------||*--------------------------------
-----------------------------------||---------------------------------
----------0------------------------||---------------------------------
                                                                      

                            P.M.       Full                           
---------------------------------|------------------------------------
---------------------------------|------------------------------------
---------------------------------|------14-----(14)p12----------------
---14------------12--14~~~---12--|-------------------------14---------
----------14---------------------|------------------------------------
---------------------------------|------------------------------------
                                                                      

                     P.M.                               
---------------------------||-----------------------------------------
---------------------------||-----------------------------------------
--------------------------*||---2-----(2)p0---------------------------
-------12-----14~~~---12--*||-------------------2-----------0---------
14-------------------------||-----------------------------------------
---------------------------||-------------------------0---------------
                                                                      

                                                              
---------|----------------------------------------3--3--|-------------
---------|----------------------------------------3--3--|-------------
---------|---2-----(2)p0--------------------------------|-------------
2--------|----------------2-----------0-----2-----------|-------------
---------|----------------------------------------------|-------------
------0--|----------------------0-----------------------|-------------
                                                                      

(riff b)                                         
---------------------------------------------------------------||-----
---------------------------------------------------------------||-----
---------------------------17-----(17)p15---------------------*||-----
-------------------------------------------17------15--17~~~--*||-----
-----------------------------------------------17--------------||-----
---------------------------------------------------------------||-----
                                                                      

                                           (w/ Riff b)                
----------------------------------------|-----------------------------
----------------------------------------|-----------------------------
----------------------------------------|-----------------------------
17--17--x--15--x--14--x--15--x--17--17--|-----------------------------
----------------------------------------------------------------------
----------------------------------------------------------------------
Comments