Kravitz Lenny - American Woman Chords & Tabs

 

American Woman Chords & Tabs

Kravitz Lenny Chords & Tabs

Version: 2 Type: Tab 0 ratings
1 star 2 stars 3 stars 4 stars 5 stars
comments

American Woman Tab

here it is, standard tuning, you know the usual symbols...


E--------------------|-------------|---------------------|-----------------|
B--------------------|-------------|---------------------|-----xx----------|
G---5-5-5-5-5---3-5--|-------------|---5-5-5-5-5---3-5---|-----xx--6h8p6---|
D---5-5-5-5-5---3-5--|-------0-----|---5-5-5-5-5---3-5---|-----------------|
A---3-3-3-3-3---3-3--|-------------|---3-3-3-3-3---3-3---|-----------------|
E--------------------|--3h6--------|---------------------|-----------------|


E----------------------|-------------|---------------------|-----------------|
B----------------------|-------------|---------------------|-----xx----------|
G---5-5-5-5-5---3---5--|-------------|---5-5-5-5-5---3-5---|-----xx--6h8p6---|
D---5-5-5-5-5---3---5--|-------0-----|---5-5-5-5-5---3-5---|-----------------|
A---3-3-3-3-3---3---3--|-------------|---3-3-3-3-3---3-3---|-----------------|
E----------------------|--3h6--------|---------------------|-----------------|
[ Tab from: http://www.guitartabs.cc/tabs/k/kravitz_lenny/american_woman_tab_ver_2.html ]
then played under the first four bars of the solo
E--------------------|-------------|---------------------|-----------------|
B--------------------|-------------|---------------------|-----xx----------|
G---4-4-4-4-4---2-4--|-------------|---4-4-4-4-4---2-4---|-----xx--5h7p5---|
D---4-4-4-4-4---2-4--|-------------|---4-4-4-4-4---2-4---|-----------------|
A---2-2-2-2-2---2-2--|---------4---|---2-2-2-2-2---2-2---|-----------------|
E--------------------|--2h4--------|---------------------|-----------------|


E----------------------|-------------|---------------------|-----------------|
B----------------------|-------------|---------------------|-----xx----------|
G---4-4-4-4-4---2---4--|-------------|---4-4-4-4-4---2-4---|-----xx--5h7p5---|
D---4-4-4-4-4---2---4--|-------------|---4-4-4-4-4---2-4---|-----------------|
A---2-2-2-2-2---2---2--|---------4---|---2-2-2-2-2---2-2---|-----------------|
E----------------------|--2h4--------|---------------------|-----------------|

note:this is the main riff one semitone lower


also note: Very important if you are going to perform this song.  The rhythm of 
the third bar of each four-bar riff is slightly different.  Listen and you'll 
hear what I'm talking about.

other notes:
*the main riff is played throughout the rest of the song where necessary

*the solo is played four bars in the key of B, then four in the key of C
Comments