Kravitz Lenny - American Woman Chords & Tabs

 

American Woman Chords & Tabs

Kravitz Lenny Chords & Tabs

Version: 1 Type: Tab 4 ratings
1 star 2 stars 3 stars 4 stars 5 stars
comments

American Woman Tab

Lenny K : american woman
Sumbmited by your favorite cuzin, CUZIN G
----------------------------------------------

this is what lenny realy plays

a barre chord on the 3rd fret

these are the chords he plays
-3----3----3
-3----3----3
-4----3----4
-5----3----5
-5----3----5
-3----3----3

then lift all fingers except the finger making the bar

then play
[ Tab from: http://www.guitartabs.cc/tabs/k/kravitz_lenny/american_woman_tab.html ]
------------  
------------
------------
------3-----
-3h5--------
------------

-----------------------------------------------------------
reapeat the chords then play 

------------
------------
--5-----3---
------------
------------
------------

reapeat through the whole song

best played on 2 guitars :
1. Doing chords 
2. playing tab



But I managed it all myself & so does Lenny K 


Peace out !!!!!!!!1

 


Comments