Kravitz Lenny - Always On The Run Riff Chords & Tabs

 

Always On The Run Riff Chords & Tabs

Kravitz Lenny Chords & Tabs

Version: 1 Type: Tab 0 ratings
1 star 2 stars 3 stars 4 stars 5 stars
comments

Always On The Run Riff Tab

   
#----------------------------------PLEASE NOTE---------------------------------#
#This file is the author's own work and represents their interpretation of the #
#song. You may only use this file for private study, scholarship, or research. #
#------------------------------------------------------------------------------#

Lenny Kravitz - Always on the run
=================================
Riff1 (Intro)
e--14\---
B--14\---
G--14\---
D--------
A--------
E--------

Riff2a (Main riff guitar1)
e-----------------------------|-------------------------------|
B-----------------------------|-------------------------------|
G-----------------------------|-------------------------------|
D-------------------5h0-------|---------------------------0h2-|
A-----7--5h4---5----------7---|-----7--5h4---5--5-5h2---------|
E--0---------0----0-----0-----|--0---------0----------3h0-----|
[ Tab from: http://www.guitartabs.cc/tabs/k/kravitz_lenny/always_on_the_run_riff_tab.html ]
Lead1 (Main lead guitar2)
e-----------------------------|----------------------11/12-12-12-|
B-----------------------------|----------------------11/12-12-12-|
G-----------------------------|----------------------11/12-12-12-|
D--x-x-5--7--------x-5--x-----|--x-x-5--7--------x-x-------------|
A--x-x-------5--7---------5h7-|--x-x-------5--7--x-x-------------|


E-----------------------------|----------------------------------|

Riff3 Chorus
|-----------------------------|-----------------------------|
|-----------------------------|-----------------------------|
|-----------------------------|-----------------------------|
|-------------------5h0-------|-----------------------2--4--|
|-----7--5h4---5----------7---|-----7--5h4---5--5-5h2-2--4--|
|--0---------0----0-----0-----|--0---------0----------0--2--|
   E-riff                                             E5 F#5

------------------------------|-----------------------------|
------------------------------|-----------------------------|
--4--4--x-x-x-x-6--6--x-x-x-x-|-----------------------------|
--5--5--x-x-x-x-7--7--x-x-x-x-|-------------------5h0-------|
--5--5--x-x-x-x-7--7--x-x-x-x-|-----7--5h4---5----------7---|
--3--3--x-x-x-x-5--5--x-x-x-x-|--0---------0----0-----0-----|
  G5            A5               E-riff

Riff2  (+Lead1)
Comments