Kravitz Lenny - Again Solo Chords & Tabs

 

Again Solo Chords & Tabs

Kravitz Lenny Chords & Tabs

Version: 1 Type: Tab 0 ratings
1 star 2 stars 3 stars 4 stars 5 stars
comments

Again Solo Tab

#----------------------------------PLEASE NOTE--------------------------------#
#This file is the author's own work and represents their interpretation of the#
#song. You may only use this file for private study, scholarship, or research.#
#-----------------------------------------------------------------------------#

Again Solo - This is much better than the other solo tab,
	     which is totally wrong!...	    

Lenny Kravitz

by Brian S.

Solo :
e--------------------------------------------------|
b--------------12b~~~~~~---12b-12b~--12b--12v~~~~--|
g---/14v~~~~~--------------------------------------|
d--------------------------------------------------|
a--------------------------------------------------|
e--------------------------------------------------|
..forever...  
					   with bar
e-------12b~~~~~~~---r12--10--9--10--9---/-------------|
b--10----------------------------------10-9h10p9h10p9--|
g------------------------------------------------------|
d------------------------------------------------------|
a------------------------------------------------------|
e------------------------------------------------------|
[ Tab from: http://www.guitartabs.cc/tabs/k/kravitz_lenny/again_solo_tab.html ]
e-----------\--------------9-10-12~~~~--/14--\12~~---|
b-h10p9h10p9----12~--10-12---------------------------|
g----------------------------------------------------|
d----------------------------------------------------|
a----------------------------------------------------|
e----------------------------------------------------|

e---17b~~~-r17~~~~~----19b~~-19b~~~-r19--17h19p17--19-17~~~-|
b-----------------------------------------------------------|
g-----------------------------------------------------------|
d-----------------------------------------------------------|
a-----------------------------------------------------------|
e-----------------------------------------------------------|

       * see bottom	
e--21--21b(22)~--r21--17--19--17~~~~~---------------|
b---------------------------------------------------|
g---------------------------------------------------|
d-------------------------------------14-p12--------|
a--------------------------------------------14-----|
e-----------------------------------------------x\--|
 						^
					       dive bomb
*
if you have a 22 fret guitar, you dont have to bend.
Just go to 22, than return to 21.  But if you are like
me with a mex strat, bend the 21st.

      
Comments