Krauss Alison - It Doesnt Matter Chords & Tabs

 

It Doesnt Matter Chords & Tabs

Krauss Alison Chords & Tabs

Version: 1 Type: Tab 1 rating
1 star 2 stars 3 stars 4 stars 5 stars
comments

It Doesnt Matter Tab

Alison Krauss - It doesn't matter

I searched everywhere on the net for this and couldn't find it so i decided to tab it myself. 

Intro: 
e ------------1--0-----------------------1--0------------------------------1------1--------------1---------1---------
B ---------3--------3--1--3---------3--------3--1--3-----------------------------------------------------------------
G ------2--------------------------2-----------------------------------3--------3------------3----------3-------------
D --0--------------------------0-----------------------------------3----------3------------3----------3---------------
A ----------------------------------------------------------------1----------1------------1-----------1----------------
E ----------------------------------------------------------------------------------------------------------------------- 

Repeat this pattern twice


VERSE 1 (PART 1)
e ------------------1--0------------------------------------------1--0------------------------------------------1----------1--------------------1-------1---
B ------------3-------------3----1----3---------------------3-----------3----1----3-------------------------------------------------------------------------
G --------2-----------------------------------------------2----------------------------------------------3------------3----------------3-----------3---------
D----0------------------------------------------------0----------------------------------------------3------------3-----------------3-----------3------------
A --------------------------------------------------------------------------------------------------1-------------1----------------1-----------1---------------
E ---------------------------------------------------------------------------------------------------------------------------------------------------------------

             

[ Tab from: http://www.guitartabs.cc/tabs/k/krauss_alison/it_doesnt_matter_tab.html ]
(PART 2)
e ------------------0--------------------0------------0-------------0------0--------------0-----------0-----------------0-----------
B ------------1----------------------1-----------1-------------1------1--------------1-------------1-----------------1--------------
G --------0----------------------0-----------0-------------0-------0--------------0--------------0-----------------0----------------
D --------------------------------------------------------------------------------------------------------------------------------------
A ---3-----------------------3----------3-------------3--------3--------------3---------------3--------------3-----------------------
E ---------------------------------------------------------------------------------------------------------------------------------------
     



e ------------1-----------1------------1------------1-----------------0-----------0----------------1-----------1------------
B --------3-----------3---------------------------------------------1-----------1----------------3-----------3---------------
G -----2-----------2------------3------------3----------------0-----------0----------------2-----------2--------------------
D --0-----------0------------3-----------3---------------------------------------------0-----------0-------------------------
A -------------------------1------------1-------------------3------------3----------------------------------------------------
E ------------------------------------------------------------------------------------------------------------------------------


VERSE 2 (PART 1)
e ---------------1---------------------1-------------------1-------------------1---------------1---------------1---------------1--------------1--------
B ----------3--------------------3--------------------3-------------------3------------------------------------------------------------------------------
G ------2--------------------2--------------------2-------------------2-----------------3----------------3----------------3--------------3-------------
D --0--------------------0-------------------0---------------------0-----------------3---------------3-----------------3--------------3----------------
A -----------------------------------------------------------------------------------1--------------1-----------------1--------------1-------------------
E ---------------------------------------------------------------------------------------------------------------------------------------------------------
       
Repeat part 2 pattern




I haven't figured out the solo part yet but as soon as i have i'll add it in. Some of this is probably wrong and i don't think the lyrics
are right either but anyway this is all i know and how i play it.



Tabbed by A. Patterson (Any comments or queries email me at frodoa1@hotmail.com)
Comments