Kovenant - The Human Abstract Chords & Tabs

 

The Human Abstract Chords & Tabs

Kovenant Chords & Tabs

Version: 1 Type: Tab 0 ratings
1 star 2 stars 3 stars 4 stars 5 stars
comments

The Human Abstract Tab

   
                              Kovenant
                          "The Human Abstract"
                            "Animatronic"
                            Tabbed By Jeff
                          Davemus000@hotmail.com
                          
    Standard Tuning: EADGBE.
    
    * - Palm Mute
    \/ - Slide
    h or p - Hammer-On Or Pull-Off
    () - Implied 
    b - Bend pitch indicated
    ~ - vibrato
    A.H - artificial harmonic
                                                                1st ending
E|--------------------------------------------------------------|---------------|
B|--------------------------------------------------------------|---------------|
G|--------------------------------------------------------------|---------------|
D|-4---2---4---4/5-4---2---4---5\4-2----------------------------|-5-------------|
A|-2-0-0-0-2-0-2/3-2-0-0-0-2-0-3\2-0-00-000-00000-5-------------|-3-333333333333|
E|------------------------------------------------3-333333333333|---------------|
     *   *   *       *   *   *       ** *** *****   ************  * ************
     
2nd ending

D|------2p0---|
A|--3-0-------|
E|0-----------|
  * * *

   3rd ending
D|-----------------|
A|-4---------------|
E|-2-2222222222----|
     **********
                                                        
E||------------------------------------------------------------------------------------------
B||------------------------------------------------------------------------------------------
G||------------------------------------------------------------------------------------------
D||--9--------9-------10----9---------9---------7----10--9---------9---------10----9---------
A||--7--------7-------8-----7---------7---------5----8---7---------7---------8-----7---------
E||--0--0-0-0-0-0-0-0-------0--0-0-0--0--0-0-0--------------0-0-0--0--0-0-0--------0--0-0-0--
        * * *   * * *          * * *     * * *              * * *     * * *           * * *

    second time: palm mute

E||---------------------
B||---------------------
G||---------------------
D||-12-10-9-------------
A||-10-8--7-------------
E||-------0-------------


[ Tab from: http://www.guitartabs.cc/tabs/k/kovenant/the_human_abstract_tab.html ]
                  Verse
 There is no guitar here,
 this is what the synth
 is implying.
 |***********************|    very fast...   
     
E|--------------------------------------------------------------------------
B|----------(9)------guitar-------------------------------------------------
G|----------(9)-------comes-------------------------------------------------
D|----------(9)----------in:------------------------------------------------
A|----------------------------5h7-----5h7-----5h7---5h7-----5h7-----#5------
E|--(0)---------------------------000-----000-----0-----000-----000-#3------
                                  ***     ***     *     ***     ***

#:Third time replace G5 with below.

      A.H                            
    
Low E|-3~--|

Then next time:

semi-harmonic

A|-5b1/2~--
E|---------

next time:
    
    A.H

A|-5b1/4~--
E|---------


Second Chorus? The guitar is really low in the mix and hard to hear.. Not done yet--

Bridge

E||--------------------------------------------------------------------------||
B||--------------------------------------------------------------------------||
G||--------------------------------------------------------------------------||
D||-9-----8-----8---9-----8-----8----9-----8-----8---9-9-9---8-8-8-----------||
A||-7-----6-----6---7-----6-----6----7-----6-----6---7-7-7---6-6-6-----------||
E||---0-0---0-0---0---0-0---0-0----0---0-0---0-0---0-------0-----------------||
      * *   * *   *   * *   * *    *   * *   * *   *       *
                synth loop of some sort-- then:

E||------------------------------------------------------------------------||
B||------------------------------------------------------------------------||
G||------------------------------------------------------------------------||
D||------------------------------------------------------------------------||
A||---2---4---4/5---2-----4---4/5---2-----4---4/5---2---4------------------||
E||-0-0-0-2-0-2/3-0-0-0-0-2-0-2/3-0-0-0-0-2-0-2/3-0-0-0-2-0-2b1/2~---------||
    *   *   *     *   * *   *     *   * *   *     *   * * * 

              Solo Rhythm:
                                                                               
E||--------------------------------------------------------------------||
B||--------------------------------------------------------------------||
G||------------------5---------------2-------------4-------------------||
D||--2---------------5-----5-----5---2-----2---2---4-----4-----4-------||
A||--2-----2-----2---3-3-3-3-3-3-3-3-0-0-0-0-0-0-0-2-2-2-2-2-2-2-2-----||
E||--0-0-0-0-0-0-0-0---------------------------------------------------||
       * *   * *   *   * *   * *   *   * *   *   *   * *   * *   *



Second Chorus & Solo coming soon
Comments