Kotiteollisuus - Yo Paivaa Keinuttaa Chords & Tabs

 

Yo Paivaa Keinuttaa Chords & Tabs

Kotiteollisuus Chords & Tabs

Version: 1 Type: Tab 0 ratings
1 star 2 stars 3 stars 4 stars 5 stars
comments

Yo Paivaa Keinuttaa Tab

   
KOTITEOLLISUUS: YÖ PÄIVÄÄ KEINUTTAA

Vire: C#-G#-C#-F#-A#-D#

    tabbed by plikk
  ****************************************************************************

x = dempattuna
k = kuoleta
~ = vibrato 
h = hammer on
 

Alku
|------------------------------------------------------------------|
|------------------------------------------------------------------|
|------------------------------------------------------------------|
|-0---0---2-3-0---2---3---3-------------0-0-2-3-0---2---3---3------|
|-0---0---2-3-0---2---3---3-------------0-0-2-3-0---2---3---3------|
|-0---0---2-3-0---2---3-------3~--------0-0-2-3-0---2---3-------3--|
            h                           x x   h                 k
                      
|------------------------------|
|------------------------------|
|------------------------------|
|-0----------------------------|
|-0--------------------5-------|
|-0------------------------0---|   
                                        
|------------------------------|
|------------------------------|
|------------------------------|
|-3----------------------------|
|-3--------------------5-------|
|-3------------------------3---|

|------------------------------|
|------------------------------|
|------------------------------|
|-0----------------------------|
|-0--------------------5-------|
|-0------------------------0---| 
 
|------------------------------|
|------------------------------|
|------------------------------|
|-3---------5-5-5-5-5-5--------|
|-3---------5-5-5-5-5-5--------|
|-3---------5-5-5-5-5-5-3~-----|
            x x x x x x

[ Tab from: http://www.guitartabs.cc/tabs/k/kotiteollisuus/yo_paivaa_keinuttaa_tab.html ]
 säkeistö
|-----------------------------------------------------------------|
|-----------------------------------------------------------------|
|-----------------------------------------------------------------|
|-0-0-0-0-0-0-0-0-0-0-0-0-0-------3-3-3-3-3-3-3-3-3-3-3-3-3-------|
|-0-0-0-0-0-0-0-0-0-0-0-0-0-5-----3-3-3-3-3-3-3-3-3-3-3-3-3-5-----|
|-0-0-0-0-0-0-0-0-0-0-0-0-0---0---3-3-3-3-3-3-3-3-3-3-3-3-3---3---|
  x x x x x x x x x x x x x       x x x x x x x x x x x x x 
                                                               1.     2.
|-----------------------------------------------------------|------|-----|
|-----------------------------------------------------------|------|-----|
|-----------------------------------------------------------|------|-----|
|-0-0-0-0-0-0-0-0-0-0-0-0-0-------3-3-3-3-3-3-3-3-5-5-5-5-5-|-5----|-5-5-|
|-0-0-0-0-0-0-0-0-0-0-0-0-0-5-----3-3-3-3-3-3-3-3-5-5-5-5-5-|-5----|-5-5-|
|-0-0-0-0-0-0-0-0-0-0-0-0-0---0---3-3-3-3-3-3-3-3-5-5-5-5-5-|-5-3~-|-5-5-|
  x x x x x x x x x x x x x       x x x x x x x x x x x x x   x         k



 kertsi:
 1. kitara
|-------------------------------------------------------------------------|
|-------------------------------------------------------------------------|
|-------------------------------------------------------------------------|
|-3-3-3-3-3-3-3-3-10-10-10-10-10-10-10-10-5-5-5-5-5-5-5-5-0-0-0-0-0-0-0-0-|
|-3-3-3-3-3-3-3-3-10-10-10-10-10-10-10-10-5-5-5-5-5-5-5-5-0-0-0-0-0-0-0-0-|
|-3-3-3-3-3-3-3-3-10-10-10-10-10-10-10-10-5-5-5-5-5-5-5-5-0-0-0-0-0-0-0-0-|
 
 2. kitara
|-8---8-7---8------8---8-7---8-------10----10-8---10------8---7---5-------|
|---8----------------8------------------8---------------------------------|
|-------------------------------------------------------------------------|
|-------------------------------------------------------------------------|
|-------------------------------------------------------------------------|
|-------------------------------------------------------------------------|



 soolo:
 1. kitara
|----------|--------------------------------------------------------------|
|----------|--------------------------------------------------------------|
|-5~-------|-9-9-9-9-9-9-5-7---5---7---9---5-7~---------5-7-9---5-------5~|
|----------|--------------------------------------------------------7-----|
|----------|--------------------------------------------------------------|
|----------|--------------------------------------------------------------|

|-------------------------------------|
|-------------------------------------|
|-5-7-9---5-------5---5---4-----------|
|-------------7---------------5~------|
|-------------------------------------|
|-------------------------------------|

 2. kitara
            X4        X4        X4        X4
|-------------|---------|---------|---------|
|-------------|---------|---------|---------|
|-------------|---------|---------|---------|
|-10-10-10-10-|-5-5-5-5-|-7-7-7-7-|-3-3-3-3-|
|-10-10-10-10-|-5-5-5-5-|-7-7-7-7-|-3-3-3-3-|
|-10-10-10-10-|-5-5-5-5-|-7-7-7-7-|-3-3-3-3-|


 loppusointu
|-----------------|
|-----------------|
|-----------------|
|-10--------------|
|-10--------------|
|-10--------------|
Comments