Kotiteollisuus - Taman Taivaan Alla Chords & Tabs

 

Taman Taivaan Alla Chords & Tabs

Kotiteollisuus Chords & Tabs

Version: 2 Type: Tab 0 ratings
1 star 2 stars 3 stars 4 stars 5 stars
comments

Taman Taivaan Alla Tab

   
KOTITEOLLISUUS: TÄMÄN TAIVAAN ALLA

Vire: C#-G#-C#-F#-A#-D#

  ****************************************************************************
Tabbed By Plikk  
  ****************************************************************************

x = dempattuna
h = hammer on
 

Alkuriffi:

1-kitara:
|-------------------------------------------------------------------|
|-------------------------------------------------------------------|
|-------------------------------------------------------------------|
|--3-3-3-3-3-3-3-3-0-0-0-0-0-0-0-0-7-7-7-7-7-7-7-7-8-8-8-8-8-8-8-7--|
|--3-3-3-3-3-3-3-3-0-0-0-0-0-0-0-0-7-7-7-7-7-7-7-7-8-8-8-8-8-8-8-7--|
|--3-3-3-3-3-3-3-3-0-0-0-0-0-0-0-0-7-7-7-7-7-7-7-7-8-8-8-8-8-8-8-7--|

2-kitara:
|-------------------------------------------------------------------|
|-------------------------------------------------------------------|
|--5-------5-3-2-3-2--------------2---------------------------------|
|------------------------3---------------2---------3---5-3----------|
|-------------------------------------------------------------------|
|-------------------------------------------------------------------|

[ Tab from: http://www.guitartabs.cc/tabs/k/kotiteollisuus/taman_taivaan_alla_tab_ver_2.html ]
...Tuuli yltynyt...
|-------------------------------------------------------------------|
|-------------------------------------------------------------------|
|-------------------------------------------------------------------|
|--3-3-3-3-3-3-3-3-3-3-3-3-3-3-3-3-8-8-8-8-8-8-8-8-1-1-1-1-1-1-1-1--|
|--3-3-3-3-3-3-3-3-3-3-3-3-3-3-3-3-8-8-8-8-8-8-8-8-1-1-1-1-1-1-1-1--|
|--3-3-3-3-3-3-3-3-3-3-3-3-3-3-3-3-8-8-8-8-8-8-8-8-1-1-1-1-1-1-1-1--|
   x x x x x x x x x x x x x x x x x x x x x x x x x x x x x x x x


Kertsi
|-------------------------------------------------------------------|
|-------------------------------------------------------------------|
|-------------------------------------------------------------------|
|--3-3-3-3-3-3-3-3-0-0-0-0-0-0-0-0-7-7-7-7-7-7-7-7-8-8-8-8-8-8-8-7--|
|--3-3-3-3-3-3-3-3-0-0-0-0-0-0-0-0-7-7-7-7-7-7-7-7-8-8-8-8-8-8-8-7--|
|--3-3-3-3-3-3-3-3-0-0-0-0-0-0-0-0-7-7-7-7-7-7-7-7-8-8-8-8-8-8-8-7--|

...lapsekseen, kuvakseen...
|-------------------------------------------------------------------|
|-------------------------------------------------------------------|
|-------------------------------------------------------------------|
|--8-8-8-8-8-8-8-8-8-8-8-8-8-8-8-8-8-8-8-8-8-8-8-8-8-8-8-8-8-8-8-7--|
|--8-8-8-8-8-8-8-8-8-8-8-8-8-8-8-8-8-8-8-8-8-8-8-8-8-8-8-8-8-8-8-7--|
|--8-8-8-8-8-8-8-8-8-8-8-8-8-8-8-8-8-8-8-8-8-8-8-8-8-8-8-8-8-8-8-7--|
   x x x x x x x x x x x x x x x x x x x x x x x x x x x x x x x



Loppunäppäily                   1-3.                 4.
|------------------------------|--------------------|---------------------------|
|------------------------------|--------------------|---------------------------|
|------------------------------|--------------------|---------------------------|
|------------------------------|--------------------|---------------------------|
|--12---10---8--7-8-7-5--0--3--|--3h5-5h7-7h8-8h10--|--7--5----7--5----5-7-5-3--|
|------------------------------|--------------------|---------------------------|


------------------------------------------------------
Comments