Kotiteollisuus - Suru Chords & Tabs

 

Suru Chords & Tabs

Kotiteollisuus Chords & Tabs

Version: 1 Type: Tab 0 ratings
1 star 2 stars 3 stars 4 stars 5 stars
comments

Suru Tab

   
KOTITEOLLISUUS: SURU

Vire: C#-G#-C#-F#-A#-D#

  Tabbed by plikk

x = dempattuna


Alkuriffi         1-3.   4.
|----------------|------|-------------|
|----------------|------|-------------|
|----------------|------|-------------|
|--0-2--3--3-3-0-|-2--3-|-2--2--2--2--|
|--0-2--3--3-3-0-|-2--3-|-2--2--2--2--|
|--0-2--3--3-3-0-|-2--3-|-2--2--2--2--|



Säkeistö
|-------------------------------------|
|-------------------------------------|
|-------------------------------------|
|--3-------10-------3-----------------|
|--3-------10-------3--3-2-0----------|
|--3-------10-------3--------3-0-2-3--|
[ Tab from: http://www.guitartabs.cc/tabs/k/kotiteollisuus/suru_tab.html ]
|--------------------------------------------------|
|--------------------------------------------------|
|--------------------------------------------------|
|--2-2-2-2----2-2-2-2----2-2-2-2-------------------|
|--2-2-2-2----2-2-2-2-3--2-2-2-2----3-2-0----------|
|--2-2-2-2-3--2-2-2-2----2-2-2-2-3--------3-0-2-3--|
   x x x x    x x x x    x x x x




Kertsi            1-7.     8.
|----------------|--------|--------------|
|----------------|--------|--------------|
|----------------|--------|--------------|
|--0-2--3--3--0--|--2--3--|--2--2--2--2--|
|--0-2--3--3--0--|--2--3--|--2--2--2--2--|
|--0-2--3--3--0--|--2--3--|--2--2--2--2--|


---------------------------------------------------------------------------------------
Comments