Kotiteollisuus - Rakastaaei Rakasta Chords & Tabs

 

Rakastaaei Rakasta Chords & Tabs

Kotiteollisuus Chords & Tabs

Version: 1 Type: Tab 0 ratings
1 star 2 stars 3 stars 4 stars 5 stars
comments

Rakastaaei Rakasta Tab

   
KOTITEOLLISUUS: RAKASTAA / EI RAKASTA

Vire: C#-G#-C#-F#-A#-D#
Tabbed by plikk
  ****************************************************************************


x = dempattuna

Alkuriffi
|-------------------------------------------------------------------|
|-------------------------------------------------------------------|
|-------------------------------------------------------------------|
|--0--7--0--6--0--5--0--5--0--5-7--0--7--0--6--0--5--0-0-0-0-0-0-0--|
|--0--7--0--6--0--5--0--5--0--5-7--0--7--0--6--0--5--0-0-0-0-0-0-0--|
|--0--7--0--6--0--5--0--5--0--5-7--0--7--0--6--0--5--0-0-0-0-0-0-0--|
                                                     x x x x x x x
[ Tab from: http://www.guitartabs.cc/tabs/k/kotiteollisuus/rakastaaei_rakasta_tab.html ]
  4X                  2X
|-------------------|-------------------|--------------------------------|
|-------------------|-------------------|--------------------------------|
|--4-4-4-4-4-4-4-4--|--5-5-5-5-5-5-5-5--|-4-4-4-4-4-4-4-4-4-4-4-4--------|
|--4-4-4-4-4-4-4-4--|--5-5-5-5-5-5-5-5--|-4-4-4-4-4-4-4-4-4-4-4-4--3--5--|
|--2-2-2-2-2-2-2-2--|--3-3-3-3-3-3-3-3--|-2-2-2-2-2-2-2-2-2-2-2-2--3--5--|
|-------------------|-------------------|--------------------------3--5--|
   x x x x x x x x     x x x x x x x x    x x x x x x x x x x x x


...Mietin miksi päässäni...             1.                                    2.
|--------------------------------------|-------------------------------------|----------------------|
|--------------------------------------|-------------------------------------|----------------------|
|--------------------------------------|------------------555555555555-5--6--|-----------5555-5--6--|
|--0000000000000000-777777777777-7--5--|-3333333333333333-555555555555-5--6--|--33333333-5555-5--6--|
|--0000000000000000-777777777777-7--5--|-3333333333333333-333333333333-5--4--|--33333333-3333-3--4--|
|--0000000000000000-777777777777-7--5--|-3333333333333333--------------------|--33333333------------|



|--------------------------------------|
|--------------------------------------|
|--------------------------------------|
|--0000000000000000-777777777777-7--5--|
|--0000000000000000-777777777777-7--5--|
|--0000000000000000-777777777777-7--5--|
   xxxxxxxxxxxxxxxx xxxxxxxxxxxx
Comments