Kotiteollisuus - Min Olen Chords & Tabs

 

Min Olen Chords & Tabs

Kotiteollisuus Chords & Tabs

Version: 1 Type: Bass Tab

Min Olen Bass Tab

Tabbed by: Empo
Song: Minš olen
Band: Kotiteollisuus

chorus:  2x
G|-----------------------------------------------------------------------|
D|-----------------------------------------------------------------------|
A|---------------------------------2-2-2-2-2-2-2-2-----------------------|
E|-4-4-4-4-4-4-4-4-0-0-0-0-0-0-0-0-----------------2-2-2-2-2-2-2-2-------|
chorus ends

4x
G|----------------------------------------------------------------------|
D|----------------------------------------------------------------------|
A|-2-2-2-2-2-2-2-2-2-2-2-2-2-2-0-0--------------------------------------|
E|---------------------------------2-2-2-2-2-2-2-2-2-2-2-2-2-2-4-4------|

G|-------------------------------------------------------------------|
D|-------------------------------------------------------------------|
A|-0-0-0-0-0-0-0-0-0-0-0-0-0-0---------------------------------------|
E|-----------------------------4-4-0-0-0-0-0-0-0-0-0-0-0-0-0-0-------|



G|---------------------------------|
D|---------------------------------|
A|---------------------------------|
E|-0-0-0-0-0-0-0-0-0-0-0-0-0-0-----|


Chorus:  2x
G|-----------------------------------------------------------------------|
D|-----------------------------------------------------------------------|
A|---------------------------------2-2-2-2-2-2-2-2-----------------------|
E|-4-4-4-4-4-4-4-4-0-0-0-0-0-0-0-0-----------------2-2-2-2-2-2-2-2-------|
chorus ends

[ Tab from: http://www.guitartabs.cc/tabs/k/kotiteollisuus/min_olen_btab.html ]
4x
G|----------------------------------------------------------------------|
D|----------------------------------------------------------------------|
A|-2-2-2-2-2-2-2-2-2-2-2-2-2-2-0-0--------------------------------------|
E|---------------------------------2-2-2-2-2-2-2-2-2-2-2-2-2-2-4-4------|

G|-------------------------------------------------------------------|
D|-------------------------------------------------------------------|
A|-0-0-0-0-0-0-0-0-0-0-0-0-0-0---------------------------------------|
E|-----------------------------4-4-0-0-0-0-0-0-0-0-0-0-0-0-0-0-------|



G|---------------------------------|
D|---------------------------------|
A|---------------------------------|
E|-0-0-0-0-0-0-0-0-0-0-0-0-0-0-----|


chorus:  2x
G|-----------------------------------------------------------------------|
D|-----------------------------------------------------------------------|
A|---------------------------------2-2-2-2-2-2-2-2-----------------------|
E|-4-4-4-4-4-4-4-4-0-0-0-0-0-0-0-0-----------------2-2-2-2-2-2-2-2-------|
chorus ends


8x
G|---------------------------------|
D|---------------------------------|
A|---------------------------------|
E|-0-0-0-0-0-0-0-1-0-0-0-0-0-1-----|

chorus:  8x
G|-----------------------------------------------------------------------|
D|-----------------------------------------------------------------------|
A|---------------------------------2-2-2-2-2-2-2-2-----------------------|
E|-4-4-4-4-4-4-4-4-0-0-0-0-0-0-0-0-----------------2-2-2-2-2-2-2-2-------|
intro ends