Kotiteollisuus - Kesakatu Chords & Tabs

 

Kesakatu Chords & Tabs

Kotiteollisuus Chords & Tabs

Version: 1 Type: Tab 0 ratings
1 star 2 stars 3 stars 4 stars 5 stars
comments

Kesakatu Tab

   
KOTITEOLLISUUS: KESÄKATU

Vire: C#-G#-C#-F#-A#-D#

  ****************************************************************************
   Tabbed by plikk
  ****************************************************************************



Alkuriffi
|-----------------------------------------|
|-----------------------------------------|
|-----------------------------------------|
|--2--2--0-2--2-2--0-2--2-2--0-2--2-5--7--|
|--2--2--0-2--2-2--0-2--2-2--0-2--2-5--7--|
|--2--2--0-2--2-2--0-2--2-2--0-2--2-5--7--|


...Polttaa kesäkatumiestä...
|-----|
|-----|
|-----|
|--2--|
|--2--|
|--2--|
[ Tab from: http://www.guitartabs.cc/tabs/k/kotiteollisuus/kesakatu_tab.html ]
...Autojen pakokaasut...
|--------------------------------------|
|--------------------------------------|
|--4--4--4--4--------------------------|
|--4--4--4--4--2--2--2--2--2--2--2--2--|
|--2--2--2--2--2--2--2--2--2--2--2--2--|
|--------------2--2--2--2--2--2--2--2--|

...Katu kuuma kaupungin...
|--------------|        |--------------|
|--------------|        |--------------|
|--------------|        |--------------|
|--7--7--0--0--| X4     |--4--4--9--9--| X4
|--7--7--0--0--|        |--4--4--9--9--|
|--7--7--0--0--|        |--4--4--9--9--|



Välisoitto
|---------------------------------------------------------|
|---------------------------------------------------------|
|--9--9-9-9--9-9-9-7-7--7--7-7-7-6-6--6--6-6-6-4-4--------|
|--9--9-9-9--9-9-9-7-7--7--7-7-7-6-6--6--6-6-6-4-4--5--7--|
|---------------------------------------------------5--7--|
|---------------------------------------------------5--7--|



Lopetus
|-----|
|-----|
|-----|
|--2--|
|--2--|
|--2--|

-------------------------------------------------------------------------------------
Comments