Kotiteollisuus - Helvetist Itn Chords & Tabs

 

Helvetist Itn Chords & Tabs

Kotiteollisuus Chords & Tabs

Version: 1 Type: Tab 0 ratings
1 star 2 stars 3 stars 4 stars 5 stars
comments

Helvetist Itn Tab

   
KOTITEOLLISUUS: HELVETISTÄ ITÄÄN

Vire: C#-G#-C#-F#-A#-D#

  ****************************************************************************
 Tabbed by Plikk
  ****************************************************************************


x = dempattuna


Alkuriffi                                                             1.    2.
|--------------------------------------------------------------------|-----|----|
|--------------------------------------------------------------------|-----|----|
|--------------------------------------------------------------------|-----|----|
|--0-0-12-0-10--12-0--0-12-0-10-12-----0-0-12-0-10--12-0--0-10-0-9-0-|-7-3-|-7--|
|--0-0-12-0-10--12-0--0-12-0-10-12-10--0-0-12-0-10--12-0--0-10-0-9-0-|-7-3-|-7--|
|--0-0-12-0-10--12-0--0-12-0-10-12-----0-0-12-0-10--12-0--0-10-0-9-0-|-7-3-|-7--|


|-------------------------------------------------------------|
|-------------------------------------------------------------|
|-------------------------------------------------------------|
|--0-0---0----0----0------------0-0---0----0----0-------------|
|--0-0---0----0----0------------0-0---0----0----0-------------|
|--0-0-5-0-3--0-5--0-3--3-5-3-2-0-0-5-0-3--0-5--0-3--3-5-3-2--|

[ Tab from: http://www.guitartabs.cc/tabs/k/kotiteollisuus/helvetist_itn_tab.html ]
         ...Keräämme boonuksia...                             1.  2.
|------------------------------------------------------------|---|--------|
|------------------------------------------------------------|---|--------|
|------------------------------------------------------------|---|--------|
|--0-0-000--0-0---0----0----0------------0-0---0----0----0-3-|---|-0-0-0--|
|--0-0-000--0-0---0----0----0------------0-0---0----0----0-3-|---|-0-0-0--|
|--0-0-000--0-0-5-0-3--0-5--0-3--3-5-3-2-0-0-5-0-3--0-5--0-3-|---|-0-0-0--|
   x x xxx  x x   x    x    x            x x   x    x    x         x x x


Kertsi
|---------------------------------------------------------------------------|
|---------------------------------------------------------------------------|
|---------------------------------------------------------------------------|
|--10-10-10-10-10-10-10-10-5-5-5-5-5-5-5-5-7-7-7-7-7-7-7-7-3-3-3-3-3-3-3-3--|    X3
|--10-10-10-10-10-10-10-10-5-5-5-5-5-5-5-5-7-7-7-7-7-7-7-7-3-3-3-3-3-3-3-3--|
|--10-10-10-10-10-10-10-10-5-5-5-5-5-5-5-5-7-7-7-7-7-7-7-7-3-3-3-3-3-3-3-3--|

|-----------------------------------------------------------------------|
|-----------------------------------------------------------------------|
|-----------------------------------------------------------------------|
|--10-10-10-10-10-10-10-10-5-5-5-5-5-5-5-5-3-3--3-3--3-3--3-3--3-3-3-3--|    X1
|--10-10-10-10-10-10-10-10-5-5-5-5-5-5-5-5-3-3--3-3--3-3--3-3--3-3-3-3--|
|--10-10-10-10-10-10-10-10-5-5-5-5-5-5-5-5-3-3--3-3--3-3--3-3--3-3-3-3--|
Comments