Kortatu - Jimmy Jazz Chords & Tabs

 

Jimmy Jazz Chords & Tabs

Kortatu Chords & Tabs

Version: 1 Type: Bass Tab 0 ratings
1 star 2 stars 3 stars 4 stars 5 stars
comments

Jimmy Jazz Bass Tab

KORTATU
Jimmy Jazz


Intro

G |---------------------------------------------------|
D |---------------------------------------------------|
A |-10/11-11--7/8-3/4-4-4--10/11-11-6-6--10/11-4-11-6-|
E |---------------------------------------------------|


Riff 1
 
(Jimmy Jazz)
G |---------------------------------------------------------------------|  (x5)
D |-----------------------------3-6-3-----------5-8-5-------0-6-7-8-----|
A |---3-6-3---3-6-3---0-3-0---4---------5-6-7-8---------5-6---------6---|
E |-4-------4-------1-----------------4---------------4-----------------|


Riff 2
[ Tab from: http://www.guitartabs.cc/tabs/k/kortatu/jimmy_jazz_btab.html ]
(Jimmy Jazz baila reggae)
G |------------------------------------------------------------------| (x1)
D |-----6-----------------3-----------------6------8-----------6-8---|
A |-------6-----------------3-4-4-3-1---------4-6----6-----3-4-----6-|
E |-4-4-----4---4-4-3-1-1--------------4-4--------------4------------|


End

(después tomé unas copas con Jimmy Jazz)
G |---------------------| (x5)  
D |--------0-6-7-8------|       
A |----5-6---------6----|       
E |--4------------------|       


Fade out

G |-----|
D |-----|
A |-----|
E |--4--|


Estructura de la cançó:

Intro    (x1)
Riff 1   (x5)
Riff 2   (x1)
Riff 1   (x2)
End      (x5)
Fade out (x1)


Currada pel matxo de la ciutat , Anubis.

Comments