Korpiklaani - Pellonpekko Chords & Tabs

 

Pellonpekko Chords & Tabs

Korpiklaani Chords & Tabs

Version: 1 Type: Tab

Pellonpekko Tab

   
http://www.korpiklaani.com/

this is my first tab so give me a break ok

Tuning D

/  slide up
| \  slide down
| h  hammer-on
| p  pull-off
| ~  vibrato
| +  harmonic
| x  Mute note
[ Tab from: http://www.guitartabs.cc/tabs/k/korpiklaani/pellonpekko_tab.html ]
Violin Intro
1st riff
(0:41-2:01)
D|-----------------|-----------------------------------------------|
A|-----------------|-----------------------------------------------|
F|-----------------|-----------------------------------------------|
C|-5---9---3---7---|-7~~-------------------------------------------|
G|-5---9---3---7---|-7~~-------------------------------------------|
D|-----------------|-----------------------------------------------|

2nd riff
(2:42-3:21)
D|---------------------------------------|-------------------------|
A|---------------------------------------|-------------------------|
F|---------------------------------------|-------------------------|
C|-5-xx-5-xx-9-xx-9-xx-3-xx-3-xx-7-xx-7--|-7~--7~--7~--------------|
G|-5-xx-5-xx-9-xx-9-xx-3-xx-3-xx-7-xx-7--|-7~--7~--7~--------------|
D|---------------------------------------|-------------------------|

if i figure out the violin part ill tab it out for guitar too, because i have nothing 
to do with my life. if you have any comments or anything email me
asylum-of-corpses@hotmail.com