Korn - Yall Want A Single Chords & Tabs

 

Yall Want A Single Chords & Tabs

Korn Chords & Tabs

Version: 6 Type: Bass Tab 0 ratings
1 star 2 stars 3 stars 4 stars 5 stars
comments

Yall Want A Single Bass Tab

   
-----------------------------------------------------------------------------
			     Y'all Wanna Single - KoRn
-----------------------------------------------------------------------------

Tabbed By : Earth_Rave
e-mail: earth_rave@myway.com

Tuning: EADG   *Note* No frettong above tenth

Intro
G|---------------------|----------|
D|---------------------|----------|
A|10----10----10----10-|103333101-|
E|---------------------|----------| 8x

G|---------------------------------------------------|
D|---------------------------------------------3--235|
A|10-0-0-0010-0-0-0010-0-0-0010-0-0-0010--13---------|
E|---------------------------------------------------|

Verse
G|---------------------------------------------------------------------------|
D|------------------------------------0-0-0-001------------------------------|
A|0-0-0-0010-0-0-0010-0-0-0010-0-0-001---------3-3-3-3340-0-0-0010-0-0-0-001-|
E|---------------------------------------------------------------------------|

G|------------------|
D|0-0-0-001---------|
A|---------3-3-3-334|
E|------------------|
[ Tab from: http://www.guitartabs.cc/tabs/k/korn/yall_want_a_single_btab_ver_6.html ]
Chorus
G|---------|
D|---------|
A|103333101|
E|---------| 8x

G|---------------|
D|---------3--235|
A|10--13---------|
E|---------------|

Verse
G|---------------------------------------------------------------------------|
D|------------------------------------0-0-0-001------------------------------|
A|0-0-0-0010-0-0-0010-0-0-0010-0-0-001---------3-3-3-3340-0-0-0010-0-0-0-001-|
E|---------------------------------------------------------------------------|

G|------------------|
D|0-0-0-001---------|
A|---------3-3-3-334|
E|------------------|

Chorus
G|---------|
D|---------|
A|103333101|
E|---------| 8x

Bridge
G|---------------|    |G|-|  |--------|
D|---------3--235|    |D|-|  |--------|
A|10--13---------|    |A|0|  |---10---|
E|---------------| 4x |E|-|  |--------| 7x

Loud scream
G|---------|     |-------|  |---------|
D|---------|     |-------|  |---------|
A|103333101| 6x  |3333101|  |103333101|
E|---------|     |-------|  |---------|

Outro
G|--------------------------------------|
D|-------------------------------------0|
A|10-0-0-0010-0-0-0010-0-0-0010-0-0-001-|
E|--------------------------------------|
Comments