Korn - Yall Want A Single Chords & Tabs

 

Yall Want A Single Chords & Tabs

Korn Chords & Tabs

Version: 5 Type: Bass Tab 0 ratings
1 star 2 stars 3 stars 4 stars 5 stars
comments

Yall Want A Single Bass Tab

This song was played on a Ibanez 5 string bass (K-5 is the exact guitar)but this has 
made for a 4-String Bass Guitar in standard tunning, and is how i think it's played - Erick 
^^ sonic91745@yahoo.com

Intro
G|------------------------------------------|
D|------------------------------------------|
A|------------------------------------------|
E|-1-0---1-0---1-0---1-0---1-0---1-0---1-0--|

Chorus
G|-------------------------------|
D|-------------------------------|
A|-------------------------------|
E|-1-0-3333-2-0-1----------------|

Verse 1
G|-----------------------|
D|-----------------------|
A|-----------------------|
E|-0---0---0---0-0-1-0---|

Verse 2
G|----------------------------------|
D|----------------------------------|
A|----------------------------------|
E|-5--5--5--5-5-7--3--3--3--3-3-5---|
[ Tab from: http://www.guitartabs.cc/tabs/k/korn/yall_want_a_single_btab_ver_5.html ]
Riff 1
G|-------------------------------------|
D|-------------------------------------|
A|--------------5----4-5-6-------------|
E|-3---3--5--5-------------------------|

Riff 2
G|---------------------------|
D|---------------------------|
A|---------------------------|
E|-1---2-1---2-1---2-1---2-1-|

Riff 3
G|--------------------------|
D|--------------------------|
A|--------------------------|
E|-1-2--0---1-2-------------|

Riff 4 (editted Chorus)
G|----------------|
D|----------------|
A|----------------|
E|-0-3333-2-0-1---|

Riff 5 (editted Chorus)
G|-----------------------------|
D|-----------------------------|
A|-----------------------------|
E|-0-3333-2-0-1----3333-2-0-1--|

Song with riff's in order
Intro (x1)
Chorus (x4)
Verse 1 (x4)
Riff 1 (x1)----|
Verse 1 (x4)   |
Verse 2 (x1)   |----play
Verse 1 (x2)   |      twice
Verse 2 (x2)   |
Chorus (x8)----|

Riff 1 (x4)
Riff 2 (x2)
Riff 3 (x6)
Riff 5 (x4)
Riff 6 (x2)
Chorus (x4)
Verse 1 (x5)
Comments