Korn - Word Up Chords & Tabs

 

Word Up Chords & Tabs

Korn Chords & Tabs

Version: 4 Type: Tab 0 ratings
1 star 2 stars 3 stars 4 stars 5 stars
comments

Word Up Tab

   
how many versions of this have been released?!!
i think this one is cool but the cameo
one is better(JOKING!!)

TUNING
A
F
C
G
D
A

Intro
A|--------------------------------|
F|-13--13--13--13--11--11--11--11-|
C|-13--13--13--13--11--11--11--11-|
G|--------------------------------|
D|--------------------------------|
A|--------------------------------|

A|--------------------------------|
F|-9--9--11--11--13--13--13--13---|
C|-9--9--11--11--13--13--13--13---|
G|--------------------------------|
D|--------------------------------|

verse
A|---------------------------------|
F|---------------------------------|
C|-6--6--4--4--2--2-4--4--6-6--4-6-|
G|-6--6--4--4--2--2-4--4--6-6--4-6-|x4
D|-4--4--2--2--0--0-2--2--4-4--2-4-|
A|---------------------------------|
[ Tab from: http://www.guitartabs.cc/tabs/k/korn/word_up_tab_ver_4.html ]
chorus
A|-14-14-14-14-14--13--11\-----------|
F|-13-13-13-13-13--13--11\-----------|
C|-------------------------2--2-4--4-|
G|-------------------------2--2-4--4-|
D|-------------------------0--0-2--2-|
A|-----------------------------------|

A|-------------|
F|-------------|
C|-6--6--4--6--|
G|-6--6--4--6--|x4
D|-4--4--2--4--|
A|-------------|

interlude
A|-------------------------|-------------------------|
F|-------------------------|-------------------------|
C|-------------------------|-------------------------|
G|-----------------------5-|----------------------4--|
D|-2h4-4-4--2h4-4-4--2h4---|-2h4-4-4--2h4-4-4-2h4----|
A|-------------------------|-------------------------|

outro
A|--------------------------------------------|
F|--------------------------------------------|
C|-9-9-9-8-8-6--6--9-9-9-8-8-6--6--4-4-6\4-6\-|
G|-9-9-9-8-8-6--6--9-9-9-8-8-6--6--4-4-6\4-6\-|
D|-7-7-7-6-6-4--4--7-7-7-6-6-4--4--2-2-4\2-4\-|
A|--------------------------------------------|

hope its O.K
David
Comments