Korn - Word Up Chords & Tabs

 

Word Up Chords & Tabs

Korn Chords & Tabs

Version: 3 Type: Tab 0 ratings
1 star 2 stars 3 stars 4 stars 5 stars
comments

Word Up Tab

I saw this and had to correct it...it's an awesome song...this may be a smidgen off but 
closer..

There are actually 3 guitars in it, which is obvious, Korn plays a 7 string tuned down a
full step on this song (a, d, g, c, f, a, d) but it's a lot easier on a 6 string to just
tune down to a drop D and play it this way..bar chords can be used if you want to tune
the whole guitar down a step but for this tab I will show the easier drop D version.

acoustic:
e------------------------------------------------|
b------------------------------------------------|
g------------------------------------------------|
d-4-4-4-4-2-2-2-2-0-0-2-2-4-4-2-4----------------|
a-4-4-4-4-2-2-2-2-0-0-2-2-4-4-2-4----------------|
d-4-4-4-4-2-2-2-2-0-0-2-2-4-4-2-4----------------|
[ Tab from: http://www.guitartabs.cc/tabs/k/korn/word_up_tab_ver_3.html ]
electric w/ heavy distortion
main riff:
e---------------------------------------------|
b---------------------------------------------|
g---------------------------------------------|
d-4--4--2--2---0-0-2-2-4-4-2-4----------------|
a-4--4--2--2---0-0-2-2-4-4-2-4----------------|
d-4--4--2--2---0-0-2-2-4-4-2-4----------------|

chorus isnt much different:

e------------------------------------------|
b------------------------------------------|
g------------------------------------------|
d-4----2-----0--2-2-4-4-2-4----------------|
a-4----2-----0--2-2-4-4-2-4----------------|
d-4----2-----0--2-2-4-4-2-4----------------|

bridge:

e--------------------|
b--------------------|
g--------------------| Repeat
d--------------------|
a---------------3----|
d-2-4-4-2-4-2-4------|

outro:

e----------------------|
b----------------------|
g----------------------|
d-4----7-7-7-6--4-2----|  Repeat
a-4----7-7-7-6--4-2----|
d-4----7-7-7-6--4-2----|

Will work on tabbing the lead when I get time..
Comments