Korn - Twisted Transistor Chords & Tabs

 

Twisted Transistor Chords & Tabs

Korn Chords & Tabs

Version: 2 Type: Tab

Twisted Transistor Tab

   
---------------------------------------------------------------------------
			     Twisted Transistor - KoRn
---------------------------------------------------------------------------

Tabbed by:Eduardo Lan
Email:eduradolan_12@hotmail.com

Tuning: 7 String Tuned Low to High (A D G C F A D)

Intro:
d|-------------------------------------------------|
a|-------------------------------------------------|
F|-------------------------------------------------|
C|-------------------------------------------------|
G|-------------------------------------------------|
D|-------------------------------------------------|
A|--0-0---3^-3-3^-3---0-0---3-3^---0-0-0-0---3-3^--|
  PM...             PM...        PM.......  

Verse:
d|---------------------------------------------|
a|---------------------------------------------|
F|---------------------------------------------|
C|---------------------------------------------|
G|---------------------------------------------|
D|--0-0---6/5\6/5---0-0---5\6---0-0-0-0---5\6--|
A|--0-0---4/3\4/3---0-0---3\4---0-0-0-0---3\4--|
  PM...            PM..         PM.....
[ Tab from: http://www.guitartabs.cc/tabs/k/korn/twisted_transistor_tab_ver_2.html ]
when jonathan star to sing 
d|-------------------------------------------------|
a|-------------------------------------------------|
F|-------------------------------------------------|
C|-------------------------------------------------|
G|-------------------------------------------------|
D|-------------------------------------------------|
A|--0-0---3^-3-3^-3---0-0---3-3^---0-0-0-0---3-3^--|
  PM...             PM...        PM....... 
 
pre chorus:
d|-------------------------------------------------------------------------|
a|-------------------------------------------------------------------------|
F|-------------------------------------------------------------------------|
C|----6-----5-----|       |--------------|                |-----------| 
G|-0--6--0--5-----|       |-5-x-6-x-7/8--|                |-5-x-6-x-7-|    
D|-0--4--0--3-----|       |-5-x-6-x-7/8--|                |-5-x-6-x-7-| 
A|-0-----0--------|x4     |-3-x-4-x-5/6--|x3 and the last |-3-x-4-x-5-| 

chorus:
d|---------------------------------------------|
a|---------------------------------------------|
F|---------------------------------------------|
C|---------------------------------------------|
G|---------------------------------------------|
D|--0-0---6/5\6/5---0-0---5\6---0-0-0-0---5\6--|
A|--0-0---4/3\4/3---0-0---3\4---0-0-0-0---3\4--|
  PM...            PM..         PM.....

d|---------------------------------|
a|---------------------------------|
F|---------------------------------|
C|---------------------------------|
D|--0-0---6/5\6/5----5-x-6-x-7-----|
A|--0-0---4/3\4/3----3-x-4-x-5-----|

solo
d|---------------------------------------------|
a|---------------------------------------------|
F|---------------------------------------------|
C|-16h20-16h18-16h17-16-16h17-16h19-16h17-16---|
G|---------------------------------------------|
D|---------------------------------------------|
A|---------------------------------------------|

d|-----------------------|
a|-----------------------|
F|-----------------------|
C|-12-12-12-12-12-12-12--|
G|-----------------------|
D|-----------------------|
A|-----------------------|

| /  slide up
| \  slide down
| h  hammer-on
| p  pull-off
| ~  vibrato
| +  harmonic
| x  Mute note
============================================================================