Korn - Twist Chords & Tabs

 

Twist Chords & Tabs

Korn Chords & Tabs

Version: 3 Type: Tab 0 ratings
1 star 2 stars 3 stars 4 stars 5 stars
comments

Twist Tab

   
KoRn
Twist 
Life Is Peachy
tuned a whole step down (d,a,f,c,g,d,a)
[ Tab from: http://www.guitartabs.cc/tabs/k/korn/twist_tab_ver_3.html ]
Riff 1
gtr. 1
|---------------------------------------|
|--------10/11--12---------11\10--9-----|
|---------x------x----------x-----x-----|
|---------8/9---10----------9\8---7-----| 8x
|---------------------------------------|
|---------------------------------------|
|-0-0-0-------------0-0-0---------------|
 |-pm--|           |-pm--|   
gtr. 2                    trem.bar  |1/2|
|-------6/18-18\12-|---------------------|
|------------------|----------------4--4-|
|------------------|---------------------|
|------------------|---------------------|
|------------------|---------------------|
|------------------|---------------------|
|------------------|---------------------|
                                  harm.
Riff 2
gtrs. 1&2                                     
|-------------------------------------------------|
|------9-----------9----------9----------9--------|
|------x-----------x----------x----------x--------|
|------7-----------7----------7----------7--------|
|-------------------------------------------------|
|-------------------------------------------------|
|-0-0-------0-0-0-----0--0-0------0-0-0--------0--|
 
order:
Riff 1, Riff 2,
Riff 1, Riff 2
 Twist!
Comments