Korn - Trash Chords & Tabs

 

Trash Chords & Tabs

Korn Chords & Tabs

Version: 3 Type: Tab 0 ratings
1 star 2 stars 3 stars 4 stars 5 stars
comments

Trash Tab

#----------------------------------PLEASE NOTE---------------------------------#
#This file is the author's own work and represents their interpretation of the #
#song. You may only use this file for private study, scholarship, or research. #
#------------------------------------------------------------------------------#

ARTIST:KORN.
ALBUM:KORN ISSUES.

TRANSCRIBED BY :DONOVAN LEWIS AND BARRY ROBERTSON  (donovan77@ananzi.co.za)

GUITAR TUNED:A E A C E A.all my tunign of guitars for korn tabs are the same and you can play all of them at the same tuning.THE TOP STRING FOR MY GUITAR I USE A 58.

SEEING THAT KORN PLAYS A 7-STRING GUITAR AND MOST PEOPLE HAVE A 6-STRING WE DID THE TABS FOR A 6-STRING GUITAR.
INTRO:

A---0-0-----------------1-1-------------2-2---------------1-1--------------------------------------------------------
E---0-0-----------------1-1-------------2-2---------------1-1---------------------------------------------------------
A---------------------------------------------------------------------------------------------------------------------------
C---------------------------------------------------------------------------------------------------------------------------     (X1)
E------------0---0-------------0----0----------0---0---------------0---0----------------------------------------------
A--------------0---0--------------0---0----------0---0---------------0---0--------------------------------------------
-
VERSE:

A--------------------------------------------------------------------------------------------------------------------------
E---------------------------------------------------------------------------------------------------------------------------
A---------------------------------------------------------------------------------------------------------------------------
C---------------------------------------------------------------------------------------------------------------------------       (X6)
E------------------16---------16------------------------------16---15-------------------------------------------------
A---15----17----------15---------15---15---15---17---------------------------------------------------------------



PRECHORUS:


A----3--3--------4------3-------0h3------0----4-------3--3----4----3----0------3--3-----4-----------
E----3--3--------4------3-------0h3------0----4-------3--3----4----3----0------3--3-----4-----------
A----------------------------------------------------------------------------------------------------------------
C----------------------------------------------------------------------------------------------------------------     (X2)
E----------------------------------------------------------------------------------------------------------------
A----------------------------------------------------------------------------------------------------------------

CHORUS:

A----0-0----------------------1-1-------------------2-2----------------------1-1----------------------------
E-----------------------------------------------------------------------------------------------------------------
A-----------------------------------------------------------------------------------------------------------------
C-----------------------------------------------------------------------------------------------------------------   (X2)
E--------------0-----0-------------------0----0----------------0----0-----------------0----0----------------
A------------------0----0------------------0----0----------------0----0------------------0----0-------------

VERSE:
[ Tab from: http://www.guitartabs.cc/tabs/k/korn/trash_tab_ver_3.html ]
A--------------------------------------------------------------------------------------------------------------------------
E---------------------------------------------------------------------------------------------------------------------------
A---------------------------------------------------------------------------------------------------------------------------
C---------------------------------------------------------------------------------------------------------------------------       (X6)
E------------------16---------16------------------------------16---15-------------------------------------------------
A---15----17----------15---------15---15---15---17---------------------------------------------------------------


PRECHORUS:

A----3--3--------4------3-------0h3------0----4-------3--3----4----3----0------3--3-----4-----------
E----3--3--------4------3-------0h3------0----4-------3--3----4----3----0------3--3-----4-----------
A----------------------------------------------------------------------------------------------------------------
C----------------------------------------------------------------------------------------------------------------     (X2)
E----------------------------------------------------------------------------------------------------------------
A----------------------------------------------------------------------------------------------------------------

CHORUS:

A----0-0----------------------1-1-------------------2-2----------------------1-1----------------------------
E-----------------------------------------------------------------------------------------------------------------
A-----------------------------------------------------------------------------------------------------------------
C-----------------------------------------------------------------------------------------------------------------    (X2)
E--------------0-----0-------------------0----0----------------0----0-----------------0----0----------------
A------------------0----0------------------0----0----------------0----0------------------0----0-------------
PRECHORUS:

A----3--3--4--3--1--3--3--3--4-------------------------------------------------------------------------------
E----3--3--4--3--1--3--3--3--4-------------------------------------------------------------------------------
A-------------------------------------------------------------------------------------------------------------------
C-------------------------------------------------------------------------------------------------------------------  (X8)
E-------------------------------------------------------------------------------------------------------------------
A-------------------------------------------------------------------------------------------------------------------

CHORUS

A----0-0----------------------1-1-------------------2-2----------------------1-1----------------------------
E-----------------------------------------------------------------------------------------------------------------
A-----------------------------------------------------------------------------------------------------------------
C-----------------------------------------------------------------------------------------------------------------    (X5)
E--------------0-----0-------------------0----0----------------0----0-----------------0----0----------------
A------------------0----0------------------0----0----------------0----0------------------0----0-------------



I THINK THIS TAB IS 100% 
THE TIMING IS NOT THAT HARD.
HOPE YOU ENJOY THE TAB,FOR NEW TABS OF KORN E-MAIL ME AT donovan77@ananzi.co.za.
Comments