Korn - Trash Chords & Tabs

 

Trash Chords & Tabs

Korn Chords & Tabs

Version: 3 Type: Bass Tab 0 ratings
1 star 2 stars 3 stars 4 stars 5 stars
comments

Trash Bass Tab

   
-------------------------------------------------------------------------------
			         TRASH - KoRn
-------------------------------------------------------------------------------

Tabbed By : KoRnKid89
e-mail: XblytheX89@aol.com

Tuning: ADGCF


  Intro:
    S
F|----------------------------------|
C|----------------------------------|
G|----------------------------------|
D|----------------------------------|
A|--0-------1-------2-------1-------|


  Verse 1:
F|------------------------------------|------------------------------------|
C|------------------------------------|------------------------------------|
G|------------------------------------|------------------------------------|
D|------------------------------------|------------------------------------|
A|--0h1-0---0h1-1----0h1-0---0h1---2--|--0h1-0---0h1-1----0h1-0---0h1-0-2--| (x2)

F|------------------------------------|------------------------------------|
C|------------------------------------|------------------------------------|
G|------------------------------------|------------------------------------|
D|------------------------------------|------------------------------------|
A|--0h1-0---0h1-1----0h1-0---0h1---2--|--0h1-0---0h1-1----0h1-0------------| 

  
  Pre-Chorus: (slap all)
F|----------------------------------------------|
C|----------------------------------------------|
G|----------------------------------------------|
D|----------------------------------------------|
A|--0--0--1-1--00-0-1--1--0--0--1-1--00-1-0--3--| (x2)


  Choruses 1 & 2:
            S S                S S          S S       S S       S S       S S
F|---------------------------------------|------------------------------------------|
C|---------------------------------------|------------------------------------------|
G|---------------------------------------|------------------------------------------|
D|---------------------------------------|------------------------------------------|
A|--0-------1-1--------2-------1-1-------|--0-0-------1-1-------2-2-------1-1-------|
[ Tab from: http://www.guitartabs.cc/tabs/k/korn/trash_btab_ver_3.html ]
  
  Verse 2:
F|------------------------------------|------------------------------------|
C|------------------------------------|------------------------------------|
G|------------------------------------|------------------------------------|
D|------------------------------------|------------------------------------|
A|--0h1-0---0h1-1----0h1-0---0h1---2--|--0h1-0---0h1-1----0h1-0------------| 

F|------------------------------------|------------------------------------|
C|------------------------------------|------------------------------------|
G|------------------------------------|------------------------------------|
D|------------------------------------|------------------------------------|
A|--0h1-0---0h1-1----0h1-0---0h1---2--|--0h1-0---0h1-1----0h1-0-------0-2--| 

F|------------------------------------|-----------------------------------|
C|------------------------------------|-----------------------------------|
G|------------------------------------|-----------------------------------|
D|------------------------------------|-----------------------------------|
A|--0h1-0---0h1-1----0h1-0---0h1---2--|--0h1-0---0h1-1---0-0h1-0---0h1-1--| 


  Bridge:
    S  S  S   S   S S S S S S
F|-----------------------------|
C|-----------------------------|
G|-----------------------------|
D|-----------------------------|
A|--0--2--3p2-2h3-3-2-3-3-3-2--| (x8)


  Final chorus: (slap all)
F|------------------------------------------|
C|------------------------------------------|
G|------------------------------------------|
D|------------------------------------------|
A|--0-0-------1-1-------2-2-------1-1-------|

F|------------------------------------------------------------------------------|
C|------------------------------------------------------------------------------|
G|------------------------------------------------------------------------------|
D|------------------------------------------------------------------------------|
A|--0-0---X--X--X-X-X--1-1---X--X--X-X-X--2-2---X--X--X-X-X--1-1---X--X--X-X-X--|


  Outro: (slap all; fades into the end of the song)
F|------------------------------------------------------------------------------|
C|------------------------------------------------------------------------------|
G|------------------------------------------------------------------------------|
D|------------------------------------------------------------------------------|
A|--0-0---X--X--X-X-X--1-1---X--X--X-X-X--2-2---X--X--X-X-X--1-1---X--X--X-X-X--|



| P  pop
| S  slap
| /  slide up
| \  slide down
| h  hammer-on
| p  pull-off
| ~  vibrato
| +  harmonic
| x  Mute note
===============================================================================
Comments