Korn - Thoughtless Chords & Tabs

 

Thoughtless Chords & Tabs

Korn Chords & Tabs

Version: 9 Type: Tab 0 ratings
1 star 2 stars 3 stars 4 stars 5 stars
comments

Thoughtless Tab

                      Korn---Thoughtless
hey i put this on 6 string cas korn use those ole 7 stringers...damnit
neway i play with just normal tuning--EADGBE
/=scratch
Intro

E----------------------------------------
B----------------------------------------
G----------------------------------------  PLAY 3 TIMES
D----------------------------------------
A----5----5-----5---5----7---7---7--8888-
E---0---00----00--00---00--00--00-00-----

Here u have 2 scratch down the bass strings and then strum
once u reach the bottom of the neck

E------------0-------------0---------------0--------------------------
B------------12------------15--------------11-------------------------
G------------10------------13--------------9--------------------------
D----------/--------------/---------------/---------------------------
A----------/--------------/---------------/---------------------------
E----------/--------------/---------------/---------------------------

Last bit of intro and verse(palm muted)
[ Tab from: http://www.guitartabs.cc/tabs/k/korn/thoughtless_tab_ver_9.html ]
E--------------------------------------
B--------------------------------------
G-----6----7---7---9---9---9--10101010-       PLAY TWICE b4 VERSE AND 
D-66666----7---7---9---9---9--10101010-       REPEAT THROUGH VERSE  
A-66666----5---5---7---7---7--8-8-8-8--
E-4444---00--00--00--00--00-00---------

Prechorus (Let ring)

E-----------------------------
B-----------------------------
G-----------------------------                REPEAT
D-555666-7--------555666-3----
A-555666-7--------555666-3----
E-444555-1--------555666-1----

Chorus (im not so sure on this but it soudns fine!)

E------------------------------------------------------------
B------------------------------------------------------------
G------------------------------------------------------------REPEATX2
D-22-2222-22-2222--44-4444-44-4444--33-3333-33-3333-66-6666--
A-22-2222-22-2222--44-4444-44-4444--33-3333-33-3333-66-6666--
E-00-0000-00-0000--22-2222-22-2222--11-1111-11-1111-44-4444--

REPEAT WHOLE VERSE AND CHORUS

Bridge=Intro bit 1nce and then thru the quiet singing(all my friends
r gone they died.....) Then play verse thru the weird vocals bit)
Then do the scratchy bit and then chorus X2
There u go email me wit nethin at rebel_rich69@hotmail.com
Comments