Korn - Thoughtless Chords & Tabs

 

Thoughtless Chords & Tabs

Korn Chords & Tabs

Version: 6 Type: Tab 0 ratings
1 star 2 stars 3 stars 4 stars 5 stars
comments

Thoughtless Tab

SONG:    Thoughtless
BAND:    Korn
ALBUM:   Untouchables
E-mail:  HBJoeNOC@aol.com



Ok this is my first tab.  I felt I had to do this one since I don't 
feel any other taps have got this song right.  So here is my shot at 
it.  Let me know if you think. 
This one which is in drop D (which I think most KoRn songs are play in).


             This is the part after the funky into.......



[ Tab from: http://www.guitartabs.cc/tabs/k/korn/thoughtless_tab_ver_6.html ]
E-------------------------------------------------------------------------------------------
B-------------------------------------------------------------------------------------------
G-------------------------------------------------------------------------------------------
D----0--0--0--0--5----0--0--5--0--0--5----0--0--7--0--0--7--0--0--7--0--0--8--8--8--8-------
A----0--0--0--0--5----0--0--5--0--0--5----0--0--7--0--0--7--0--0--7--0--0--8--8--8--8-------
D----0--0--0--0--5----0--0--5--0--0--5----0--0--7--0--0--7--0--0--7--0--0--8--8--8--8-------


E-------------------------------------------------------------------------------------------
B-------------------------------------------------------------------------------------------
G-------------------------------------------------------------------------------------------
D------0--0--0--5----0--0--5--0--0--5----0--0--7--0--0--7--0--0--7--0--0--8--8--8--8--------
A------0--0--0--5----0--0--5--0--0--5----0--0--7--0--0--7--0--0--7--0--0--8--8--8--8--------
D------0--0--0--5----0--0--5--0--0--5----0--0--7--0--0--7--0--0--7--0--0--8--8--8--8--------



So there it is.  I fell it sounds much better this way.  
Mess with the timing as needed.  
If you have any QUESTIONS or COMMENTS send them to HBJoeNOC@aol.com.
 If you like this let me know and I'll do the hole song and others. thanks
Comments