Korn - Thoughtless Chords & Tabs

 

Thoughtless Chords & Tabs

Korn Chords & Tabs

Version: 13 Type: Tab 0 ratings
1 star 2 stars 3 stars 4 stars 5 stars
comments

Thoughtless Tab

   
Author/Artist: Korn
Title: Thoughtless
Album: Untouchables
Tabbed By: Paulska
E-mail Address: Squallmaster24@aol.com

This is for people with 6 string guitars

Tuning: A E A D F# B (slipknot tuning)

#----------------------------------PLEASE NOTE--------------------------------#
#This file is the author's own work and represents their interpretation of the#
#song. You may only use this file for private study, scholarship, or research.#
#-----------------------------------------------------------------------------#

|--------------------|--------------------|--------------------|--------------------|
|--------------------|--------------------|--------------------|--------------------|
|--------------------|--------------------|--------------------|--------------------| (Head)
|--------------------|--------------------|--------------------|--------------------| X3
|---3-----3----------|---3-----3----------|---5-----5----------|---5-----6-6-6-6----|
|-0---0-0----------0-|-0---0-0----------0-|-0---0-0----------0-|-0---0-0------------|

|--------------------|--------------------|--------------------|--------------------|
|--------------------|--------------------|--------------------|--------------------|
|-7------------------|10------------------|-6------------------|--------------------| (Munky)
|-6------------------|-9------------------|-5------------------|--------------------| X3
|-5------------------|-8------------------|-4------------------|--------------------| 
(Comes in on Head's second turn)
|--------------------|--------------------|--------------------|--------------------|

|--------------------|--------------------|--------------------|--------------------|
|--------------------|--------------------|--------------------|--------------------|
|---------5----------|---5-----5----------|---7-----7----------|---7-----8-8-8-8----| 
(Both X2, Munky Continues)
|-4-4-4-4-5----------|---5-----5----------|---7-----7----------|---7-----8-8-8-8----| X6
|-4-4-4-4-3--------0-|-0-3-0-0-3--------0-|-0-5-0-0-5--------0-|-0-5-0-0-6-6-6-6----|
|-4-4-4-4----------0-|-0---0-0----------0-|-0---0-0----------0-|-0---0-0------------|

|--------------------|--------------------|--------------------|--------------------|
|--------------------|--------------------|--------------------|--------------------|
|-15-----------------|-14-----------------|--------------------|--------------------| (Head)
|--------------------|--------------------|-16-----------------|--------------------| 
|--------------------|--------------------|--------------------|--------------------|
|--------------------|--------------------|--------------------|--------------------|
                                                                                      X3
|--------------------|--------------------|--------------------|--------------------|
|--------------------|--------------------|--------------------|--------------------|
|s15-----------------|s14-----------------|--------------------|--------------------|
|--------------------|--------------------|-14-----------------|-----------------16-|
|--------------------|--------------------|--------------------|--------------------|
|--------------------|--------------------|--------------------|--------------------|

Pre-Chorus:

|--------------------|--------------------|--------------------|--------------------|
|--------------------|--------------------|--------------------|--------------------|
|--------------------|--------------------|--------------------|--------------------|
|--3-3-3-3-4-4-4-4---|-3-3-3--------------|----3-3-3-4-4-4-----|-1-1-1-1-1-1-1------|
|--3-3-3-3-4-4-4-4---|-3-3-3--------------|----3-3-3-4-4-4-----|-1-1-1-1-1-1-1------|
|--3-3-3-3-4-4-4-4---|-3-3-3--------------|----3-3-3-4-4-4-----|-1-1-1-1-1-1-1------|
                                                                                      (Both)
|--------------------|--------------------|--------------------|--------------------|
|--------------------|--------------------|--------------------|--------------------|
|--------------------|--------------------|--------------------|--------------------|
|--3-3-3-3-4-4-4-4---|-3-3-3--------------|----3-3-3-4-4-4-----|-1--------0---------| 
|--3-3-3-3-4-4-4-4---|-3-3-3--------------|----3-3-3-4-4-4-----|-1--------0---------|
|--3-3-3-3-4-4-4-4---|-3-3-3--------------|----3-3-3-4-4-4-----|-1--------0---------|

Chorus:

|--------------------|--------------------|--------------------|--------------------|
|--------------------|--------------------|--------------------|--------------------|
|--------------------|--------------------|--------------------|--------------------| (Both)
|-5----5-5--5-5---5-5|-58---8-8--8-8---8-8|-83---3-3--3-3---3-3|-31---1---1---3-----| X2
|-5----5-5--5-5---5-5|-58---8-8--8-8---8-8|-83---3-3--3-3---3-3|-31---1---1---3-----|
|-5----5-5--5-5---5-5|-58---8-8--8-8---8-8|-83---3-3--3-3---3-3|-31---1---1---3-----|
[ Tab from: http://www.guitartabs.cc/tabs/k/korn/thoughtless_tab_ver_13.html ]
|--------------------|--------------------|--------------------|--------------------|
|--------------------|--------------------|--------------------|--------------------|
|---------5----------|---5-----5----------|---7-----7----------|---7-----8-8-8-8----| 
(Both X2, Munky Continues)
|-4-4-4-4-5----------|---5-----5----------|---7-----7----------|---7-----8-8-8-8----| X4
|-4-4-4-4-3--------0-|-0-3-0-0-3--------0-|-0-5-0-0-5--------0-|-0-5-0-0-6-6-6-6----|
|-4-4-4-4----------0-|-0---0-0----------0-|-0---0-0----------0-|-0---0-0------------|

|--------------------|--------------------|--------------------|--------------------|
|--------------------|--------------------|--------------------|--------------------|
|-15-----------------|-14-----------------|--------------------|--------------------| (Head)
|--------------------|--------------------|-16-----------------|--------------------| 
|--------------------|--------------------|--------------------|--------------------|
|--------------------|--------------------|--------------------|--------------------|
                                                                                      X
|--------------------|--------------------|--------------------|--------------------|
|--------------------|--------------------|--------------------|--------------------|
|s15-----------------|s14-----------------|--------------------|--------------------|
|--------------------|--------------------|-14-----------------|-----------------16-|
|--------------------|--------------------|--------------------|--------------------|
|--------------------|--------------------|--------------------|--------------------|

Pre-Chorus:

|--------------------|--------------------|--------------------|--------------------|
|--------------------|--------------------|--------------------|--------------------|
|--------------------|--------------------|--------------------|--------------------|
|--3-3-3-3-4-4-4-4---|-3-3-3--------------|----3-3-3-4-4-4-----|-1-1-1-1-1-1-1------|
|--3-3-3-3-4-4-4-4---|-3-3-3--------------|----3-3-3-4-4-4-----|-1-1-1-1-1-1-1------|
|--3-3-3-3-4-4-4-4---|-3-3-3--------------|----3-3-3-4-4-4-----|-1-1-1-1-1-1-1------|
                                                                                      (Both)
|--------------------|--------------------|--------------------|--------------------|
|--------------------|--------------------|--------------------|--------------------|
|--------------------|--------------------|--------------------|--------------------|
|--3-3-3-3-4-4-4-4---|-3-3-3--------------|----3-3-3-4-4-4-----|-1--------0---------| 
|--3-3-3-3-4-4-4-4---|-3-3-3--------------|----3-3-3-4-4-4-----|-1--------0---------|
|--3-3-3-3-4-4-4-4---|-3-3-3--------------|----3-3-3-4-4-4-----|-1--------0---------|

Chorus:

|--------------------|--------------------|--------------------|--------------------|
|--------------------|--------------------|--------------------|--------------------|
|--------------------|--------------------|--------------------|--------------------| (Both)
|-5----5-5--5-5---5-5|-58---8-8--8-8---8-8|-83---3-3--3-3---3-3|-31---1---1---3-----| X2
|-5----5-5--5-5---5-5|-58---8-8--8-8---8-8|-83---3-3--3-3---3-3|-31---1---1---3-----|
|-5----5-5--5-5---5-5|-58---8-8--8-8---8-8|-83---3-3--3-3---3-3|-31---1---1---3-----|

|--------------------|--------------------|--------------------|--------------------|
|--------------------|--------------------|--------------------|--------------------|
|--------------------|--------------------|--------------------|--------------------| (Head)
|--------------------|--------------------|--------------------|--------------------| 
|--------------------|--------------------|---5-----5----------|---5-----6-6-6-6----|
|--------------------|--------------------|-0---0-0----------0-|-0---0-0------------|

|--------------------|--------------------|--------------------|--------------------|
|--------------------|--------------------|--------------------|--------------------|
|--------------------|--------------------|--------------------|--------------------| (Head)
|--------------------|--------------------|--------------------|--------------------| X4
|---3-----3----------|---3-----3----------|---5-----5----------|---5-----6-6-6-6----|
|-0---0-0----------0-|-0---0-0----------0-|-0---0-0----------0-|-0---0-0------------|

|--------------------|--------------------|--------------------|--------------------|
|--------------------|--------------------|--------------------|--------------------|
|---------5----------|---5-----5----------|---7-----7----------|---7-----8-8-8-8----| 
(Both X2, Munky Continues)
|-4-4-4-4-5----------|---5-----5----------|---7-----7----------|---7-----8-8-8-8----| X4
|-4-4-4-4-3--------0-|-0-3-0-0-3--------0-|-0-5-0-0-5--------0-|-0-5-0-0-6-6-6-6----|
|-4-4-4-4----------0-|-0---0-0----------0-|-0---0-0----------0-|-0---0-0------------|

|--------------------|--------------------|--------------------|--------------------|
|--------------------|--------------------|--------------------|--------------------|
|-7------------------|10------------------|-6------------------|--------------------| (Munky)
|-6------------------|-9------------------|-5------------------|--------------------| X3
|-5------------------|-8------------------|-4------------------|--------------------| 
(Comes in on Head's second turn)
|--------------------|--------------------|--------------------|--------------------|

Chorus:

|--------------------|--------------------|--------------------|--------------------|
|--------------------|--------------------|--------------------|--------------------|
|--------------------|--------------------|--------------------|--------------------| (Both)
|-5----5-5--5-5---5-5|-58---8-8--8-8---8-8|-83---3-3--3-3---3-3|-31---1---1---3-----| X4
|-5----5-5--5-5---5-5|-58---8-8--8-8---8-8|-83---3-3--3-3---3-3|-31---1---1---3-----|
|-5----5-5--5-5---5-5|-58---8-8--8-8---8-8|-83---3-3--3-3---3-3|-31---1---1---3-----|
Comments