Korn - Thoughtless Chords & Tabs

 

Thoughtless Chords & Tabs

Korn Chords & Tabs

Version: 11 Type: Tab 0 ratings
1 star 2 stars 3 stars 4 stars 5 stars
comments

Thoughtless Tab

   
Artist:Korn
Album:Untouchables
Tuning:C F Bb Eb G C
Tabber: Kornfreakonaleash (rmash4719@hotmail.com)
This one of my favorite Korn songs and I think this tab is pretty accurate.



                      Intro
C------------------------------------------------------------------
F------------------------------------------------------------------
Bb-----------------------------------------------------------------
Eb-----------------------------------------------------------------
G------------------------------------------------------------------
C--7-7-7-7----77-7-7-7-7-7----7-9-7-7-7-9----7-9-7-7-7-10-10-10-10-

                  (Heavy Distortion)

C--------------------
F--14----17----13----
Bb-------------------            Repeat Two More Times
Eb-11----14----10---- 
G--------------------
C--------------------
      

                        Verse
[ Tab from: http://www.guitartabs.cc/tabs/k/korn/thoughtless_tab_ver_11.html ]
C--------------------------------------------------------------
F--------------------------------------------------------------
Bb-------------------------------------------------------------  Repeat 
Eb---------4------4-------4------4-------6------6-------7-7-7-7  Several
G--3-3-3-3-2----3-2-3-3-3-2----3-2-3-3-3-4----3-4-3-3-3-5-5-5-5  Times
C--1-1-1-1------1---1-1-1------1---1-1-1------1---1-1-1--------


                       Pre-Chorus

C--------------------------------------
F--------------------------------------
Bb-------------------------------------    Repeat Once
Eb-8-9-8-9999-8----8-9-8-9999-8-6666666
G--6-7-6-7777-6----6-7-6-7777-6-4444444
C--------------------------------------
                    

                            Chorus

C------------------------------------------------------------------
Bb-----------------------------------------------------------------  Repeat
Eb-10-10-10-10--101010-13-13-13-13--13-13-13-8-8-8-8--8-8-8-6-6-6-8
G--8---8--8--8---8-8-8-11-11-11-11--11-11-11-6-6-6-6--6-6-6-4-4-4-6
C------------------------------------------------------------------

Verse

Pre-Chorus

Chorus

Bridge (1st part is same as intro, 2nd part is same as verse)

Chorus 2x

That's all there is to it. If you want to say anything about this tab,
you can e-mail me at: rmash4719@hotmail.com
Comments