Korn - Thoughtless Chords & Tabs

 

Thoughtless Chords & Tabs

Korn Chords & Tabs

Version: 1 Type: Bass Tab 0 ratings
1 star 2 stars 3 stars 4 stars 5 stars
comments

Thoughtless Bass Tab

   
Band: KoRn
Song: Thoughtless
Album: Untouchables
Tuning: (Low To High) A, D, G, C, F 
by 112178

     W   W   W   W   W   W   
F: |---|---|---|---|---|---|(0:24)
C:4|---|---|---|---|---|---|
G:4|-R-|-R-|-R-|-R-|-R-|-R-|
D: |---|---|---|---|---|---|
A: |---|---|---|---|---|---|


     S S S S S E S S S S S S E S   S S S S S E S S S S S S S S S
F: |-----------------------------|-------------------------------|
C:4|-----------------------------|-------------------------------|
G:4|-----------R-------------R---|-----------R-------------------|
D: |---------5-------5-----5-----|---7-----7-------7-----8-8-8-8-|
A: |-4-4-4-4-----0-0---0-0-----0-|-0---0-0-----0-0---0-0---------|


     S S S S S E S S S S S S E S   S S S S S E S S S S S S S S S
F: |-----------------------------|-------------------------------|(1:01)
C:4|-----------------------------|-------------------------------|
G:4|-R---------R-------------R---|-----------R-------------------|x5
D: |---------5-------5-----5-----|---7-----7-------7-----8-8-8-8-|
A: |---4-4-4-----0-0---0-0-----0-|-0---0-0-----0-0---0-0---------|


     S S S S S S S S S E* Q   S S S S S S S S S E* Q     S  S S S S S S S S E* Q
F: |------------------------|-------------------------|--------------------------|
C:4|------------------------|-------------------------|--------------------------|
G:4|-R-----------------R--R-|-R-----------------------|---------------------R--R-|
D: |------------------------|-------------------------|--------------------------|
A: |---3-3-3-4-4-4-4-3------|---0-3-3-4-4-4-4-4-1=(1)===(1)-0-3-3-4-4-4-4-3------|


     S S S S S S S S S E* S S S S
F: |------------------------------|(1:14)
C:4|------------------------------|
G:4|-R----------------------------|
D: |------------------------------|
A: |---0-3-3-4-4-4-4-4-2--2-1-1-1-|


     S S S S S S S S S S S S S S S S   S S S S S S S S S S S S S S S S
F: |---------------------------------|---------------------------------|
C:4|---------------------------------|---------------------------------|
G:4|---------R---R-----------R---R---|---------R---R-----------R---R---|
D: |---------------------------------|---------------------------------|
A: |-5-5-5-5---5---5-5-5-5-5---5---5-|-8-8-8-8---8---8-8-8-8-8---8---8-|


     S S S S S S S S S S S S S S S S   S S S S S S S S S S S S S S S S
F: |---------------------------------|---------------------------------|
C:4|---------------------------------|---------------------------------|
G:4|---------R---R-----------R---R---|---------R---R-------------------|
D: |---------------------------------|---------------------------------|
A: |-3-3-3-3---3---3-3-3-3-3---3---3-|-1-1-1-1---1---1-1-1-1-1-3-3-3-3-|


     S S S S S S S S S S S S S S S S   S S S S S S S S S S S S S S S S
F: |---------------------------------|---------------------------------|
C:4|---------------------------------|---------------------------------|
G:4|---------R---R-----------R---R---|---------R---R-----------R---R---|
D: |---------------------------------|---------------------------------|
A: |-5-5-5-5---5---5-5-5-5-5---5---5-|-8-8-8-8---8---8-8-8-8-8---8---8-|


     S S S S S S S S S S S S S S S S   S S S S S S S S S S S S S S S S
F: |---------------------------------|---------------------------------|(1:39)
C:4|---------------------------------|---------------------------------|
G:4|---------R---R-----------R---R---|---------R---R-------------------|
D: |---------------------------------|---------------------------------|
A: |-3-3-3-3---3---3-3-3-3-3---3---3-|-1-1-1-1---1---1-1-1-1-1-3-3-3-3-|


     S S S S S E S S S S S S E S   S S S S S E S S S S S S S S S
F: |-----------------------------|-------------------------------|(2:05)
C:4|-----------------------------|-------------------------------|
G:4|-R---------R-------------R---|-----------R-------------------|x4
D: |---------5-------5-----5-----|---7-----7-------7-----8-8-8-8-|
A: |---4-4-4-----0-0---0-0-----0-|-0---0-0-----0-0---0-0---------|


     S S S S S S S S S E* Q   S S S S S S S S S E* Q     S  S S S S S S S S E* Q
F: |------------------------|-------------------------|--------------------------|
C:4|------------------------|-------------------------|--------------------------|
G:4|-R-----------------R--R-|-R-----------------------|---------------------R--R-|
D: |------------------------|-------------------------|--------------------------|
A: |---3-3-3-4-4-4-4-3------|---0-3-3-4-4-4-4-4-1=(1)===(1)-0-3-3-4-4-4-4-3------|


     S S S S S S S S S E* S S S S
F: |------------------------------|(2:17)
C:4|------------------------------|
G:4|-R----------------------------|
D: |------------------------------|
A: |---0-3-3-4-4-4-4-4-2--2-1-1-1-|


     S S S S S S S S S S S S S S S S   S S S S S S S S S S S S S S S S
F: |---------------------------------|---------------------------------|
C:4|---------------------------------|---------------------------------|
G:4|---------R---R-----------R---R---|---------R---R-----------R---R---|
D: |---------------------------------|---------------------------------|
A: |-5-5-5-5---5---5-5-5-5-5---5---5-|-8-8-8-8---8---8-8-8-8-8---8---8-|


     S S S S S S S S S S S S S S S S   S S S S S S S S S S S S S S S S
F: |---------------------------------|---------------------------------|
C:4|---------------------------------|---------------------------------|
G:4|---------R---R-----------R---R---|---------R---R-------------------|
D: |---------------------------------|---------------------------------|
A: |-3-3-3-3---3---3-3-3-3-3---3---3-|-1-1-1-1---1---1-1-1-1-1-3-3-3-3-|


     S S S S S S S S S S S S S S S S   S S S S S S S S S S S S S S S S
F: |---------------------------------|---------------------------------|
C:4|---------------------------------|---------------------------------|
G:4|---------R---R-----------R---R---|---------R---R-----------R---R---|
D: |---------------------------------|---------------------------------|
A: |-5-5-5-5---5---5-5-5-5-5---5---5-|-8-8-8-8---8---8-8-8-8-8---8---8-|

[ Tab from: http://www.guitartabs.cc/tabs/k/korn/thoughtless_btab.html ]
     S S S S S S S S S S S S S S S S   S S S S S S S S S S S S S S S S
F: |---------------------------------|---------------------------------|(2:41)
C:4|---------------------------------|---------------------------------|
G:4|---------R---R-----------R---R---|---------R---R-------------------|
D: |---------------------------------|---------------------------------|
A: |-3-3-3-3---3---3-3-3-3-3---3---3-|-1-1-1-1---1---1-1-1-1-1-3-3-3-3-|


     W   W   W   W   W   W   W   W
F: |---|---|---|---|---|---|---|---|(3:06)
C:4|---|---|---|---|---|---|---|---|
G:4|-R-|-R-|-R-|-R-|-R-|-R-|-R-|-R-|
D: |---|---|---|---|---|---|---|---|
A: |---|---|---|---|---|---|---|---|


     S S S S S E S S S S S S E S   S S S S S E S S S S S S S S S
F: |-----------------------------|-------------------------------|(3:37)
C:4|-----------------------------|-------------------------------|
G:4|-R---------R-------------R---|-----------R-------------------|x4
D: |---------5-------5-----5-----|---7-----7-------7-----8-8-8-8-|
A: |---4-4-4-----0-0---0-0-----0-|-0---0-0-----0-0---0-0---------|


     W   W
F: |---|---|
C:4|---|---|
G:4|-R-|-R-|
D: |---|---|
A: |---|---|


     S S S S S S S S S S S S S S S S   S S S S S S S S S S S S S S S S
F: |---------------------------------|---------------------------------|
C:4|---------------------------------|---------------------------------|
G:4|---------R---R-----------R---R---|---------R---R-----------R---R---|
D: |---------------------------------|---------------------------------|
A: |-5-5-5-5---5---5-5-5-5-5---5---5-|-8-8-8-8---8---8-8-8-8-8---8---8-|


     S S S S S S S S S S S S S S S S   S S S S S S S S S S S S S S S S
F: |---------------------------------|---------------------------------|
C:4|---------------------------------|---------------------------------|
G:4|---------R---R-----------R---R---|---------R---R-------------------|
D: |---------------------------------|---------------------------------|
A: |-3-3-3-3---3---3-3-3-3-3---3---3-|-1-1-1-1---1---1-1-1-1-1-3-3-3-3-|


     S S S S S S S S S S S S S S S S   S S S S S S S S S S S S S S S S
F: |---------------------------------|---------------------------------|
C:4|---------------------------------|---------------------------------|
G:4|---------R---R-----------R---R---|---------R---R-----------R---R---|
D: |---------------------------------|---------------------------------|
A: |-5-5-5-5---5---5-5-5-5-5---5---5-|-8-8-8-8---8---8-8-8-8-8---8---8-|


     S S S S S S S S S S S S S S S S   S S S S S S S S S S S S S S S S
F: |---------------------------------|---------------------------------|(4:02)
C:4|---------------------------------|---------------------------------|
G:4|---------R---R-----------R---R---|---------R---R-------------------|
D: |---------------------------------|---------------------------------|
A: |-3-3-3-3---3---3-3-3-3-3---3---3-|-1-1-1-1---1---1-1-1-1-1-3-3-3-3-|


     S S S S S S S S S S S S S S S S   S S S S S S S S S S S S S S S S
F: |---------------------------------|---------------------------------|
C:4|---------------------------------|---------------------------------|
G:4|---------R---R-----------R---R---|---------R---R-----------R---R---|
D: |---------------------------------|---------------------------------|
A: |-5-5-5-5---5---5-5-5-5-5---5---5-|-8-8-8-8---8---8-8-8-8-8---8---8-|


     S S S S S S S S S S S S S S S S   S S S S S S S S S S S S S S S S
F: |---------------------------------|---------------------------------|
C:4|---------------------------------|---------------------------------|
G:4|---------R---R-----------R---R---|---------R---R-------------------|
D: |---------------------------------|---------------------------------|
A: |-3-3-3-3---3---3-3-3-3-3---3---3-|-1-1-1-1---1---1-1-1-1-1-3-3-3-3-|


     S S S S S S S S S S S S S S S S   S S S S S S S S S S S S S S S S
F: |---------------------------------|---------------------------------|
C:4|---------------------------------|---------------------------------|
G:4|---------R---R-----------R---R---|---------R---R-----------R---R---|
D: |---------------------------------|---------------------------------|
A: |-5-5-5-5---5---5-5-5-5-5---5---5-|-8-8-8-8---8---8-8-8-8-8---8---8-|


     S S S S S S S S S S S S S S S S   S S S S S S S S S S S S S S S S
F: |---------------------------------|---------------------------------|
C:4|---------------------------------|---------------------------------|
G:4|---------R---R-----------R---R---|---------R---R-------------------|
D: |---------------------------------|---------------------------------|
A: |-3-3-3-3---3---3-3-3-3-3---3---3-|-1-1-1-1---1---1-1-1-1-1-3-3-3-3-|


     W
F: |---|
C:4|---|
G:4|-R-|
D: |---|
A: |---|



========================================================================
==                       TABLATURE EXPLANATION                        ==
========================================================================

						      s p
----------                ----------                -------
----5h8--- Hammeron       ----(8)--- Ghost          ----6-- slap n'
----------                ---------- Note           -------  pop
----5p8--- Pulloff        ----------                --3----

     						        
----------                -------x-- Dead           -----.--
----5/8--- Slide Up       ---------- Note           -----7-- Staccato
----------                ----------                --.-----
----5\8--- Slide Down     ---------- Palm           --5-----  
			      P.M.   Mute

-------                   -------- (0:30)            --------
------- Rest              ---7----                   ---5^--- Bend
--R----                   -5---7--   ^               --------
-------                   --------  time stamp       --------

			     W~		              H*  S*
----------                ----------                 --------
-4:------- Time           ---------- Let             -----7-- Dotted
-4:------- Signature      ---6------ Ring            -7------ Note
----------                ----------                 --------

Rhythm:
  W  = whole note            
  H  = half note             
  Q  = quarter note          
  E  = eighth note           
  S  = sixteenth note   
  W* = dotted whole note            
  H* = dotted half note             
  Q* = dotted quarter note          
  E* = dotted eighth note           
  S* = dotted sixteenth note
Comments