Korn - This Town Chords & Tabs

 

This Town Chords & Tabs

Korn Chords & Tabs

Version: 1 Type: Bass Tab 0 ratings
1 star 2 stars 3 stars 4 stars 5 stars
comments

This Town Bass Tab

Band - KoRn
Song - This Town
Tabbed by - Justin "Twist" Matteson
Tune strings down 1/2 step

INTRO
G||-----------5--------||
D||----6--8-----8-7-6--||
A||--8-----------------||
E||--------------------||
B||--------------------||

[ Tab from: http://www.guitartabs.cc/tabs/k/korn/this_town_btab.html ]
Pre-Chorus
G||----------------------------------------------------||
D||----------------------------------------------------||
A||----------------------------------------------------||
E||--5-5-5-5-5-5-5-5-/-7-7-7-7-7-7-7/-8-8-8-8-8-8-8-8--||
B||----------------------------------------------------||


Refrain
G||----------------------------------------------------------||
D||----------------------------------------------------------||
A||----------------------------------------------------------||
E||--3-3-3---3-3-3---3--4--3------3-3-3---3-3-3---3--4-4--3--||
B||----------------------------------------------------------||
Comments