Korn - Take Away My Pain Chords & Tabs

 

Take Away My Pain Chords & Tabs

Korn Chords & Tabs

Version: 1 Type: Tab 0 ratings
1 star 2 stars 3 stars 4 stars 5 stars
comments

Take Away My Pain Tab

   
Band- Korn
Song- Take Away My Pain

Tuning: 7strings Down 4 1/2 step
        C F A# D# G# C F (7-1)        
gt.1-2(heavy dist.)
^=bend
Tempo~100bpm
Time signature 4/4
Intro
          6x                                                 8x
||--------|| ||----------------------------------------------||	
||--------|| ||----------------------------------------------||	
||o------o|| ||o--------------------------------------------o||	
||--------|| ||----------------------------------------------||	
||o------o|| ||o--------------------------------------------o||	
||--------|| ||--12^1/412-11-11--12^1/412-11-11--12^1/212-11-||	
||--------|| ||--10^1/410-9--9---10^1/410-9--9---10^1/210-9--||

Verse
          8x                                                 4x
||--------|| ||----------------------------------------------||	
||--------|| ||----------------------------------------------||	
||o------o|| ||o--------------------------------------------o||	
||--------|| ||----------------------------------------------||	
||o------o|| ||o--------------------------------------------o||	
||--------|| ||--12^1/412-11-11--12^1/412-11-11--12^1/212-11-||	
||--------|| ||--10^1/410-9--9---10^1/410-9--9---10^1/210-9--||

[ Tab from: http://www.guitartabs.cc/tabs/k/korn/take_away_my_pain_tab.html ]
          8x                                                 4x
||--------|| ||----------------------------------------------||	
||--------|| ||----------------------------------------------||	
||o------o|| ||o--------------------------------------------o||	
||--------|| ||----------------------------------------------||	
||o------o|| ||o--------------------------------------------o||	
||--------|| ||--12^1/412-11-11--12^1/412-11-11--12^1/212-11-||	
||--------|| ||--10^1/410-9--9---10^1/410-9--9---10^1/210-9--||

Verse2
                          4x       4x
||----------|------------|| ||----||  
||----------|------------|| ||----||
||o---------|-----------o|| ||o--o||
||----------|------------|| ||----||
||o---------|-----------o|| ||o--o||
||--4--3----|------------|| ||----||
||----------|4--5-3--0h1-|| ||----||

                          3x       10x
||----------|------------|| ||----||
||----------|------------|| ||----||
||o---------|-----------o|| ||o--o||
||----------|------------|| ||----||
||o---------|-----------o|| ||o--o||
||--4--3----|------------|| ||----||
||----------|4--5-3--0h1-|| ||----||

Chorus
                                                15x
||----------------------------------------------|| ||-------------||	
||----------------------------------------------|| ||-------------||	
||o--------------------------------------------o|| ||-------------||	
||----------------------------------------------|| ||-------------||	
||o--------------------------------------------o|| ||-------------||	
||--12^1/412-11-11--12^1/412-11-11--12^1/212-11-|| ||-12^1/410-11-||	
||--10^1/410-9--9---10^1/410-9--9---10^1/210-9--|| ||-10^1/410-9--||
Please rate it.

ENJOY!!!!
Comments