Korn - Somebody Someone Chords & Tabs

 

Somebody Someone Chords & Tabs

Korn Chords & Tabs

Version: 3 Type: Tab 0 ratings
1 star 2 stars 3 stars 4 stars 5 stars
comments

Somebody Someone Tab

   
 Artist: KoRn
 Song: Somebody someone
 Album: Issues
 E-Mail: tchefuncte@excite.com
[ Tab from: http://www.guitartabs.cc/tabs/k/korn/somebody_someone_tab_ver_3.html ]
  This song was written on a 7
  string guitar, but you can play
  it on a 6-string. Head and Munky
  play it it in a alternate tuning
  but leave your guitar in standard 
  tuning.
      INTRO        repeat 4 times    
  E|-8-10-8-10-11-8-10-10-11-10-- ||                     
  B|-----------------------------+||
  G|----------------------------- ||
  D|----------------------------- ||
  A|-----------------------------+||
  E|----------------------------- ||
          repeat 8 times             repeat 8 times
  |----------------- ||-8-10-8-10-11-8-10-10-11-10- ||
  |-----------------+||+ --------------------------+||
  |-5-5-5-5-5-5-^6^- ||---------------------------- ||
  |-5-5-5-5-5-5-^6^- ||---------------------------- ||
  |-3-3-3-3-3-3-^4^-+||+ --------------------------+||
  |----------------- ||---------------------------- ||
     repeat 4 times      repeat 4 times
  |----------------- ||--------------- ||
  |-----------------+||+--------------+||
  |-5-5-5-5-5-5-^6^- ||--5/9---8/6---- ||
  |-5-5-5-5-5-5-^6^- ||--5/9---8/6---- ||
  |-3-3-3-3-3-3-^4^-+||+-3/7---6/4----+||
  |----------------- ||--------------- ||
           repeat 12 times          repeat 4 times
  |-8-10-8-10-11-8-10-10-11-10- ||------------------ ||
  |----------------------------+||+-----------------+||
  |---------------------------- ||--5-5-5-5-5-5-^6^- ||
  |---------------------------- ||--5-5-5-5-5-5-^6^- ||
  |----------------------------+||+-3-3-3-3-3-3-^4^-+||
  |---------------------------- ||------------------ ||
   repeat 4 times     repeat 24 times
  |---------------- ||--------------- ||
  |----------------+||+--------------+||
  |--5/9-----8/6--- ||--------------- ||
  |--5/9-----8/6--- ||--------------- ||
  |--3/7-----6/4---+||+-3--3--6--3---+||
  |---------------- ||--------------- ||
                      p.m~~~~~~~~~~~~
    repeat 12 times
  |----------------- ||
  |-----------------+||
  |----------------- ||    THE END
  |-5-5-8-5-4-4-4-7- ||
  |-3-3-6-3-2-2-2-5-+||
  |----------------- ||        If you have any questions
                               E-Mail me.

Comments