Korn - Somebody Someone Chords & Tabs

 

Somebody Someone Chords & Tabs

Korn Chords & Tabs

Version: 8 Type: Bass Tab

Somebody Someone Bass Tab

D|--------------------------------------|
A|--------------------------------------|
E|--------------------------------------|  X8
A|--0-0-0--12--0-0-0--12--0-0-13--------|

Verse
D|-------------------10------------------------------|
A|---------12-12--------10---------8-8----7----------|
E|--10-10---------8------------6-6------5----6-------|	X4
A|---------------------------------------------------|

Intro X4
[ Tab from: http://www.guitartabs.cc/tabs/k/korn/somebody_someone_btab_ver_8.html ]
Riff 1
    
D|------------------------------------------|
A|------------------------------------------|
E|------------------------------------------|*NOTE*(see below)
A|--3-7-6-1--3/43-7-6-2--------------------|  X2

Verse X6
Intro X4
Riff 1 X2

wait until 2:59 and then
Riff 2

D|--------------------------------------|
A|--------------------------------------|
E|--------------------------------------|  X12
A|--0h1--5p2--0h1-1-1--5--1-------------|

End
    
D|------|
A|------|
E|------|  *NOTE2*
A|--2---|  X1