Korn - Somebody Someone Chords & Tabs

 

Somebody Someone Chords & Tabs

Korn Chords & Tabs

Version: 7 Type: Bass Tab 0 ratings
1 star 2 stars 3 stars 4 stars 5 stars
comments

Somebody Someone Bass Tab

   
-----------------------------------------------------------------------------
	                   SOMEBODY SOMEONE - KoRn
-----------------------------------------------------------------------------

Tabbed By : KoRnKid89
e-mail: XblytheX89@aol.com

Tuning: ADGCF


Intro pt. 1 - No bass

  Intro pt. 2:
    S S    P   S S S S P     P 
F|--------------------------------|
C|--------------------------------|
G|---------5-----------5-----6p5--|
D|--------------------------------|
A|--3-3--------3-3-3-3------------|
  (x3)

    S S    P   S S S S P  S S     
F|-------------------------------|
C|-------------------------------|
G|---------5-----------5------5--|
D|-------------------------------|
A|--3-3--------3-3-3-3----3-3----|


  Verse 1:
F|-----------------------------------------------|
C|-------------------10--------------------------|
G|---------12-12---------10---------------12-----|
D|--10--10-------10---------9--9h12-12-9------9--|
A|-----------------------------------------------|
  (x2)

F|-----------------------------------------------|
C|-------------------10--------------------------|
G|---------12------------10---------------12-----|
D|--10--10-------10---------9--9h12----9------9--|
A|-----------------------------------------------|
  
F|-----------------------------------------------|
C|-------------------10--------------------------|
G|---------12------------10---------------12-----|
D|--10--10-------10---------9--9h12----9---------|
A|-----------------------------------------------|

   
  Pre-chorus:
    S S    P   S S S S P     P 
F|--------------------------------|
C|--------------------------------|
G|---------5-----------5-----6p5--|
D|--------------------------------|
A|--3-3--------3-3-3-3------------|
  (x4)  

[ Tab from: http://www.guitartabs.cc/tabs/k/korn/somebody_someone_btab_ver_7.html ]
  Chorus: (slap all)
F|----------------------------|----------------------------|
C|----------------------------|----------------------------|
G|----------------------------|----------------------------|
D|----------------------------|----------------------------|
A|---3------7------6------4---|---3------7------6------2---|
  (x2)


  Verse 2:
F|-----------------------------------------------|
C|-------------------10--------------------------|
G|---------12-12---------10---------------12-----|
D|--10--10-------10---------9--9h12-12-9------9--|
A|-----------------------------------------------|
  (x2)

F|-----------------------------------------------|
C|-------------------10--------------------------|
G|---------12------------10---------------12-----|
D|--10--10-------10---------9--9h12----9------9--|
A|-----------------------------------------------|
  (x3)

F|-----------------------------------------------|
C|-------------------10--------------------------|
G|---------12------------10---------------12-----|
D|--10--10-------10---------9--9h12----9---------|
A|-----------------------------------------------|


  Bridge:  
  (2:32)
F|------------------------|
C|------4-------4------3--|
G|--5-------5-------4-----|
D|------------------------|
A|------------------------|
  (x5)

F|------------------------|
C|------------------------|
G|--4~--------------------|
D|------------------------|
A|------------------------|


  Outro:
    S  S S S S   S S S S  S  S
F|------------------------------|
C|------------------------------|
G|------------------------------|
D|------------------------------|
A|--3--3-3-5-3---3-3-3-3--5--4--|
  (x12)

    P
F|-----|
C|-----|
G|-----|
D|-----|
A|--0--|



| P  pop
| S  slap
| /  slide up
| \  slide down
| h  hammer-on
| p  pull-off
| ~  vibrato
| +  harmonic
| x  Mute note
=============================================================================
Comments