Korn - Somebody Someone Chords & Tabs

 

Somebody Someone Chords & Tabs

Korn Chords & Tabs

Version: 6 Type: Bass Tab 0 ratings
1 star 2 stars 3 stars 4 stars 5 stars
comments

Somebody Someone Bass Tab

   
title: somebody someone
band: korn
album: issues

tabbed by downkast(ors_kar@hotmail.com)

This is usually played on a five string but this is how it is played
on a four string bass. i'm pretty sure about the whole song. 
play it in slap if u can :)

Somebody Someone
(dropped-D)

INTRO(Bass doesn't play)


PRE-CHORUS
G-----------------------------
D-----------------------------
A-----------------------------
D-10-10-10-11-10-10-10-10-11--
[ Tab from: http://www.guitartabs.cc/tabs/k/korn/somebody_someone_btab_ver_6.html ]
VERSE
G-------------------------------              
D----------10/11/10-------6/8/6-              
A----10-10-----------6-6--------              
D-10------5---------6---6-------              
                                   

CHORUS
G-------------------
D-------------------
A-------------------
D-10-2-1-0-10-2-1-9-
             

Bridge

G-----------------
D-----------------          
A----10---10---9--        
D-10----10---8----        

End
G---------------------------------
D---------------------------------
A---------------------------------
D-10-10--13-10--10-10-10-10--13-8-

Order: 
Intro
Prechorus x4
Verse x8
Prechorus x4
Chorus x2
Verse x8
Prechorus x4
Chorus x2
Bridge x4
End x4
Comments