Korn - Somebody Someone Chords & Tabs

 

Somebody Someone Chords & Tabs

Korn Chords & Tabs

Version: 3 Type: Bass Tab 0 ratings
1 star 2 stars 3 stars 4 stars 5 stars
comments

Somebody Someone Bass Tab

Artist: KoRn
Song: Somebody Someone
Album: Issues
 
 4-string bass in standard tuning

 RIFF 1
  |-------------------------|
  |--------2---------2---3--|
  |-------------------------|
  |-0-0-0----0-0-0-0---0----|
    S S S  P S S S S P S P

 RIFF 2
  |---------7---------------5-----|
  |------------7--------------5---|
  |---7-7------------5-5----------|
  |-7-----7-------5------5--------|
[ Tab from: http://www.guitartabs.cc/tabs/k/korn/somebody_someone_btab_ver_3.html ]
 RIFF 3
  |---------------------|
  |---------------------|
  |--3---7-------6---4--|
  |---------------------|
     P   P       P   P

 RIFF 4
  |------------------------|
  |------14------14--------|
  |---11-----11------11-12-|
  |------------------------|

 RIFF 5
  |---------------------|
  |---------------------|
  |-----3----------1----|
  |-2-2---2--1-1-1----1-|

 Play this in order:
    RIFF 1 x8
    RIFF 2 x4
    RIFF 1 x4
    RIFF 3 x4
    RIFF 2 x6
    RIFF 1 x4
    RIFF 3 x4
    RIFF 4 x5
    RIFF 5 x12
     THE END
  
  Any questions? Please E-Mail me-->tchefuncte@excite.com  
     
Comments