Korn - Shoots And Ladders Chords & Tabs

 

Shoots And Ladders Chords & Tabs

Korn Chords & Tabs

Version: 8 Type: Tab 0 ratings
1 star 2 stars 3 stars 4 stars 5 stars
comments

Shoots And Ladders Tab

   
Band- Korn
Song- Shoots And Ladders
Album- Korn

Gtr I (E A D G B E) - 'Jonathan "HIV" Davis'
Gtr II (A D G C F A D) - 'Head'
Gtr III (A D G C F A D) - 'Munky'

 Intro
  Q=90
               Bb                                G#sus2/Bb
 4/4
  Gtr I
  Wx5          W           W              +H     H
|------------|----------|--------------|--------------|
|------------|----------|--------11----|-(11)----9----|
|------------|----------|--------------|--------------|
|------------|----------|--------------|--------------|
|------------|-1--------|-(1)----------|--(1)---------|
|------------|----------|--------------|--------------|
               W          +H      H       +W


         Bbsus2          G#sus2/Bb     Bb              Bb
  +H      H       +H     H      +H      H       +W
|--------------|--------------|--------------|---------------|
|-(9)----13----|-(13)----9----|-(9)----11----|-(11)----------|
|--------------|--------------|--------------|---------------|
|--------------|--------------|--------------|---------/8----|
|-(1)----------|--(1)---------|-(1)----------|--(1)----------|
|--------------|--------------|--------------|---------------|
  +W              +W            +W              +H      H


         G#sus2/Bb     Bbsus2          G#sus2/Bb     Bb
   H     H      +H      H       +H     H      +H      H
|-------------|--------------|--------------|--------------|
|-11-----9----|-(9)----13----|-(13)----9----|-(9)----11----|
|-------------|--------------|--------------|--------------|
|-(8)---------|-(8)----------|--(8)---------|-(8)----------|
|--1----------|-(1)----------|--(1)---------|-(1)----------|
|-------------|--------------|--------------|--------------|
   W            +W              +W            +W


                Bb            G#add9/Bb    Cm7/Bb
   +W             W            W            W
|-------------|--10---------|--8---------|-11-----|
|-(11)--------|-(11)--------|--9---------|-13-----|
|-------------|-------------|------------|--------|
|--(8)--------|--(8)--------|-(8)--------|-(8)----|
|--(1)--------|--(1)--------|-(1)--------|-(1)----|
|-------------|-------------|------------|--------|
   +W            +W           +W           +W


  G#add9/Bb    Bb                         Bb
   W            W            +W            Q    Q   E  Q   E
|--8---------|-10---------|-(10)--------|--6---13--13-11--13--|
|--9---------|-11---------|-(11)--------|---------------------|
|------------|------------|-------------|---------------------|
|-(8)--------|-(8)--------|--(8)--------|-(8)-----------------|
|-(1)--------|-(1)--------|--(1)--------|-(1)-----------------|
|------------|------------|-------------|---------------------|
  +W           +W                         +W


  Bb5              Gm/Bb             Bbsus2              Eb5/Bb
   +H     Q   Q     H      E  E Q    +Q   Q   Q   E  E    +E   H     Q   E
|-(13)----6--13--|-15-----13-10-8--|-(8)--6--13--13-11-|-(11)-13--------11--|
|----------------|-----------------|-------------------|------------11------|
|----------------|-----------------|-------------------|--------------------|
|--(8)-----------|-(8)-------------|-(8)---------------|--(8)---------------|
|--(1)-----------|-(1)-------------|-(1)---------------|--(1)---------------|
|----------------|-----------------|-------------------|--------------------|
   +W              +W                +W                   +W


  Eb5/Bb                 Bb            C5
   +E   Q.   E S S  Q     +W            +W
|-(11)-11------8-------|-------------|--------------------------|
|------------9---9-11--|-(11)--------|-(11)---------------------|
|----------------------|-------------|--------------------------|
|--(8)-----------------|--(8)--------|--(8)---------------------|
|--(1)-----------------|--(1)--------|--(1)---------------------|
|----------------------|-------------|--------------------------|
|  +W
|
| Gtrs II, III
|   W                      W             S  S Q  S S S S S Q  S
|----------------------|-------------|--------------------------|
|----------------------|-------------|--------------------------|
|----------------------|-------------|--------------------------|
|----------------------|-------------|--------------------------|
|----------------------|-------------|---3--3----3-3---3-3------|
|----------------------|-------------|---3--3----3-3---3-3------|
|----------------------|-------------|---1--1----1-1---1-1------|


  Bb/C
   W                         W
|-13----------------------|-------------------------|
|-------------------------|-11----------------------|
|-------------------------|-------------------------|
|-(8)---------------------|-(8)---------------------|
|-(1)---------------------|-(1)---------------------|
|-------------------------|-------------------------|
|
|  S  S Q  S S S S S Q  S    S  S Q  S S S S S Q  S
|-------------------------|-------------------------|
|-------------------------|-------------------------|
|-------------------------|-------------------------|
|-------------------------|-------------------------|
|--3--3----3-3---3-3------|--3--3----3-3---3-3------|
|--3--3----3-3---3-3------|--3--3----3-3---3-3------|
|--1--1----1-1---1-1------|--1--1----1-1---1-1------|


   W                         W
|-13----------------------|----------------------------|
|-------------------------|-11-------------------------|
|-------------------------|----------------------------|
|-(8)---------------------|-(8)------------------------|
|-(1)---------------------|-(1)------------------------|
|-------------------------|----------------------------|
|
|  S  S Q  S S S S S Q  S    S  S Q  S S S S S Q  S
|-------------------------|----------------------------|
|-------------------------|----------------------------|
|-------------------------|----------------------------|
|-------------------------|----------------------------|
|--3--3----3-3---3-3------|--3--3----3-3---3-3---------|
|--3--3----3-3---3-3------|--3--3----3-3---3-3---------|
|--1--1----1-1---1-1------|--1--1----1-1---1-1---------|


  Bb/C
   W                         W
|-13----------------------|-------------------------|
|-------------------------|-11----------------------|
|-------------------------|-------------------------|
|-(8)---------------------|-(8)---------------------|
|-(1)---------------------|-(1)---------------------|
|-------------------------|-------------------------|
|
|  S  S Q  S S S S S Q  S    S  S Q  S S S S S Q  S
|-------------------------|-------------------------|
|-------------------------|-------------------------|
|-------------------------|-------------------------|
|-------------------------|-------------------------|
|--3--3----3-3---3-3------|--3--3----3-3---3-3------|
|--3--3----3-3---3-3------|--3--3----3-3---3-3------|
|--1--1----1-1---1-1------|--1--1----1-1---1-1------|


   W
|-13------------------------|
|---------------------------|
|---------------------------|
|-(8)-----------------------|
|-(1)-----------------------|
|---------------------------|
|
|  S  S Q  S S S S S S  Q
|----------------------<2>--|
|---------------------------|
|---------------------------|
|---------------------------|
|--3--3----3-3---3-3--------|
|--3--3----3-3---3-3--------|
|--1--1----1-1---1-1--------|


    G
    Gtrs II, III
                \1/          \1/
    E E E E E E E   E      E E    E E E    E E E  4x
||-----------------------|------------------------||
||-----------------------|------------------------||
||o-0-0-0-0-0-0-0---0----|-0-0----0-0-0----0-0-0-o||
||--5-5-5-5-5-5-5---5b6==|=5r5b7==5-5r5b6==5-5r5--||
||o----------------------|-----------------------o||
||-----------------------|------------------------||
||-----------------------|------------------------||

[ Tab from: http://www.guitartabs.cc/tabs/k/korn/shoots_and_ladders_tab_ver_8.html ]
   Verse
    $
    D5     G                D5     G
           \1/                     \1/
    S S Q  H      +E        S S Q  H      +E     8x
||------------------------|----------------------||
||------------------------|----------------------||
||o--------0------(0)-----|--------0------(0)---o||
||---------5------(5)b6.5-|--------5------(5)b6--||
||o-5-5-------------------|-5-5-----------------o||
||--5-5-------------------|-5-5------------------||
||--3-3-------------------|-3-3------------------||


   Chorus
                                                           D.S.
    D5    E5   Eb5  D5    E5   Eb5  D5    E5   Eb5  D5  C#C5
    Gtr II
     W               W               W               W
||----------------|-14------------|---------------|-----------------||
||--15------------|-15------------|-15------------|-15--------------||
||o---------------|---------------|---------------|----------------o||
||--12------------|-12------------|-12------------|-12--------------||
||o---------------|---------------|---------------|----------------o||
||----------------|---------------|---------------|-----------------||
||----------------|---------------|---------------|-----------------||
|
|   Gtr III
|    Q  E Q  E Q     Q  E Q  E Q     Q  E Q  E Q     Q  E H    +E
||----------------|---------------|---------------|-----------------||
||----------------|---------------|---------------|-----------------||
||o---------------|---------------|---------------|----------------o||
||----------------|---------------|---------------|-----------------||
||o--5--5-7--7-6--|--5--5-7--7-6--|--5--5-7--7-6--|--5--4-3----(3)-o||
||---5--5-7--7-6--|--5--5-7--7-6--|--5--5-7--7-6--|--5--4-3----(3)--||
||---3--3-5--5-4--|--3--3-5--5-4--|--3--3-5--5-4--|--3--2-1----(1)--||


                            Q=105
  C5                          D
   +W            +W           W
|-------------|-------------|------------------------------|
|-(15)--------|-(15)--------|------------------------------|
|-------------|-------------|------------------------------|
|-------------|-------------|------------------------------|
|-------------|-------------|------------------------------|
|-------------|-------------|------------------------------|
|-------------|-------------|------------------------------|
|
|  +W            +W           E S S S S S S E S S S S S S
|-------------|-------------|------------------------------|
|-------------|-------------|------------------------------|
|-------------|-------------|------------------------------|
|-------------|-------------|------------------------------|
|--(3)--------|--(3)--------|------------------------------|
|--(3)--------|--(3)--------|-------4-3-----------4-3------|
|--(1)--------|--(1)--------|-3-3-3-----4-3---3-3-----4-3--|


   Interlude
    D
    Gtr III                             Gtrs II, III
    E S S S S S S E S S S S S S  3x     E S S S S S S E S S S S S S  4x
||-------------------------------||-||-------------------------------||
||-------------------------------||-||-------------------------------||
||o-----------------------------o||-||o-----------------------------o||
||-------------------------------||-||-------------------------------||
||o-----------------------------o||-||o-----------------------------o||
||--------4-3-----------4-3------||-||--------4-3-----------4-3------||
||--3-3-3-----4-3---3-3-----4-3--||-||--3-3-3-----4-3---3-3-----4-3--||


  D                    D5    G#G5EbD5  D5  G#G5EbD5
  E S S S S S S H      E S S S S S S E S S S S S S
|--------------------|-----------------------------|
|--------------------|-----------------------------|
|--------------------|-----------------------------|
|--------------------|-------6-5-----------6-5-----|
|--------------------|-5-5-5-6-5-6-5---5-5-6-5-6-5-|
|-------4-3----------|-5-5-5-4-3-6-5---5-5-4-3-6-5-|
|-3-3-3-----4-3------|-3-3-3-----4-3---3-3-----4-3-|


    D5    G#G5EbD5  D5  G#G5EbD5    D5    G#G5EbD5
    E S S S S S S E S S S S S S  6x E S S S S S S H
||-------------------------------||--------------------|
||-------------------------------||--------------------|
||o-----------------------------o||--------------------|
||--------6-5-----------6-5------||-------6-5----------|
||o-5-5-5-6-5-6-5---5-5-6-5-6-5-o||-5-5-5-6-5-6-5------|
||--5-5-5-4-3-6-5---5-5-4-3-6-5--||-5-5-5-4-3-6-5------|
||--3-3-3-----4-3---3-3-----4-3--||-3-3-3-----4-3------|


 Mary Had A Little Lamb!!
       F#F5C#C5C#5        C5F#F5C#C5C#C5
  H    S S S S Q    +Q.   E S S S S E E
|-----------------|---------------------|
|-----------------|---------------------|
|-----------------|---------------------|
|------4-3--------|---------4-3---------|
|------4-3-4-3-4--|-(4)---3-4-3-4-3-4-3-|
|------2-1-4-3-4--|-(4)---3-2-1-4-3-4-3-|
|----------2-1-2--|-(2)---1-----2-1-2-1-|


           F#F5C#C5C#5        C5F#F5C#C5C#C5
    +H     S S S S Q    +Q.   E S S S S E E  3x
||--------------------|----------------------||
||--------------------|----------------------||
||o-------------------|---------------------o||
||---------4-3--------|---------4-3----------||
||o-(3)----4-3-4-3-4--|-(4)---3-4-3-4-3-4-3-o||
||--(3)----2-1-4-3-4--|-(4)---3-2-1-4-3-4-3--||
||--(1)--------2-1-2--|-(2)---1-----2-1-2-1--||


                Verse
             Q=90
                 D5           G
  +W             S S Q  A     H    +E     8x
|------------||---------------------------||
|------------||---------------------------||
|------------||o--------------0----(0)---o||
|------------||---------5b5.5-5----(5)b6--||
|-(3)--------||o-5-5---------------------o||
|-(3)--------||--5-5----------------------||
|-(1)--------||--3-3----------------------||


   Out-Chorus
    D5    E5   Eb5  D5    E5   Eb5  D5    E5   Eb5  D5  C#C5
    Gtr II
     W               W               W               W
||----------------|-14------------|---------------|-----------------||
||--15------------|-15------------|-15------------|-15--------------||
||o---------------|---------------|---------------|----------------o||
||--12------------|-12------------|-12------------|-12--------------||
||o---------------|---------------|---------------|----------------o||
||----------------|---------------|---------------|-----------------||
||----------------|---------------|---------------|-----------------||
|
|   Gtr III
|    Q  E Q  E Q     Q  E Q  E Q     Q  E Q  E Q     Q  E H    +E
||----------------|---------------|---------------|-----------------||
||----------------|---------------|---------------|-----------------||
||o---------------|---------------|---------------|----------------o||
||----------------|---------------|---------------|-----------------||
||o--5--5-7--7-6--|--5--5-7--7-6--|--5--5-7--7-6--|--5--4-3----(3)-o||
||---5--5-7--7-6--|--5--5-7--7-6--|--5--5-7--7-6--|--5--4-3----(3)--||
||---3--3-5--5-4--|--3--3-5--5-4--|--3--3-5--5-4--|--3--2-1----(1)--||


  N.C.(D)
  Gtr II
           TP           TP           TP
  H.       Q    H.      Q    H.      Q    W
|---------10--|---------9--|---------9--|------*|
|-------------|------------|------------|------*|
|-------------|------------|------------|------*|
|-------------|------------|------------|------*|
|-------------|------------|------------|------*|
|-------------|------------|------------|------*|
|-------------|------------|------------|------*|


Duration Legend
---------------
W - whole; H - half; Q - quarter; E - 8th; S - 16th; T - 32nd; X - 64th; a - acciaccatura
+ - note tied to previous; . - note dotted; .. - note double dotted
Uncapitalized letters represent notes that are staccato (1/2 duration)
Irregular groupings are notated above the duration line
Duration letters will always appear directly above the note/fret number it represents the
duration for.  Duration letters with no fret number below them represent rests.  Multi-
bar rests are notated in the form Wxn, where n is the number of bars to rest for.  Low
melody durations appear below the staff

Tablature Legend
----------------
 h   - hammer-on
 p   - pull-off
 b   - bend
 pb  - pre-bend
 r   - bend release (if no number after the r, then release immediately)
 /\  - slide into or out of (from/to "nowhere")
 s   - legato slide
 S   - shift slide
  - natural harmonic
[n]  - artificial harmonic
n(n) - tapped harmonic
 ~   - vibrato
 tr  - trill
 T   - tap
 TP  - trem. picking
 PM  - palm muting
\n/  - tremolo bar dip; n = amount to dip
 \n  - tremolo bar down
 n/  - tremolo bar up
/n\  - tremolo bar inverted dip
 =   - hold bend; also acts as connecting device for hammers/pulls
 <>  - volume swell (louder/softer)
 x   - on rhythm slash represents muted slash
 o   - on rhythm slash represents single note slash

Misc Legend
-----------
 |  - bar
||  - double bar
||o - repeat start
o|| - repeat end
*|  - double bar (ending)
 :  - bar (freetime)
 $  - Segno
 &  - Coda
Tempo markers -  = BPM(8/16=s8/s16), where s8 = swing 8ths, s16 = swing 16ths


***************************************************************************************
* Generated using Power Tab Editor by Brad Larsen - http://powertab.guitarnetwork.org *
***************************************************************************************
Comments