Korn - Shoots And Ladders Chords & Tabs

 

Shoots And Ladders Chords & Tabs

Korn Chords & Tabs

Version: 7 Type: Tab 0 ratings
1 star 2 stars 3 stars 4 stars 5 stars
comments

Shoots And Ladders Tab

   
KoRn
Shoots and Ladders
tuned a whole step down (d,a,f,c,g,d,a)

Riff 1       (bagpipes)  w/Heavy Distortion
Gtrs. 1&2           3x                     1x    harm.
|----------------------|-------------------------2.75--|
|----------------------|-------------------------------|
|----------------------|-------------------------------|
|----------------------|-------------------------------|
|--3-3-----3-3---3-3---|--3-3-----3-3---3-3------------|
|--3-3-----3-3---3-3---|--3-3-----3-3---3-3------------|
|--1-1-----1-1---1-1---|--1-1-----1-1---1-1------------|
[ Tab from: http://www.guitartabs.cc/tabs/k/korn/shoots_and_ladders_tab_ver_7.html ]
Riff 2       hold bend                 hold bend
Gtrs. 1&2   |---1/4---------|   1/2    |--3/4---|
|--------------------------------------------------| 
|--------------------------------------------------|  
|----0------0------0------0-----0------0-------0---|
|----5------5------5------5-----5------5-------5---| 4x
|--------------------------------------------------|
|--------------------------------------------------|
|--------------------------------------------------|
   hold bend                       hold bend
   |-1---------|      3/4   1/2   |-1/4------|
|-----------------------------------------------|
|-----------------------------------------------|
|--0-----------0------0-----0-----0---------0---|
|--5-----------5------5-----5-----5---------5---| 2x
|-----------------------------------------------|
|-----------------------------------------------|
|-----------------------------------------------|
Riff 3        
gtrs. 1&2            1/2                   1/2 
|-----------------------------------------------|
|-----------------------------------------------|
|-------------0---------------------0-----------|
|-------------5------5--------------5------5----| 4x
|--5---------------------5----------------------|
|--5---------------------5----------------------|
|--3---------------------3----------------------|
Riff 4     
gtr. 1
|------------------------------------------------|
|----15----15----15----15--------15----15----15--|
|----x-----x-----x-----x---------x-----x-----x---|
|----12----12----12----12--------12----12----12--|
|------------------------------------------------|
|------------------------------------------------|
|------------------------------------------------|
gtr. 2
|-------------------------------------|
|-------------------------------------|
|-------------------------------------|
|-------------------------------------|
|---5-------5----7-------6-------6----|
|---5-------5----7-------6-------6----|
|---3-------3----5-------4-------4----|
gtr.1
|----14----------------14--------------14----14----| 
|----15----15----15----15--------15----15----15----|
|----x-----x------x----x---------x-----x-----x-----|
|----12----12----12----12--------12----12----12----|
|--------------------------------------------------|
|--------------------------------------------------|
|--------------------------------------------------|
gtr. 2
|-------------------------------------|-------------------------|
|-------------------------------------|-------------------------|
|-------------------------------------|-------------------------|
|-------------------------------------|-------------------------|
|---5-------5----7-------6-------5----|-5-----4-------3---------|
|---5-------5----7-------6-------5----|-5-----4-------3---------|
|---3-------3----5-------4-------3----|-3-----2-------1---------|
Riff 5
gtr. 1
|------------------------------------|
|------------------------------------|
|------------------------------------|
|------------------------------------| 8x
|------------------------------------|
|----------4-3--------------4-3------|
|-2/3--3-3-----4-3------3-3-----4-3--|
  |---------------PM.--------------|
Riff 6
gtrs. 1&2
|--------------------------------------|
|--------------------------------------|
|--------------------------------------|
|--------------------------------------| 8x
|--------------------------------------|
|----------4-3--------------4-3--------|
|-2/3--3-3-----4-3------3-3-----4-3----|
Riff 7
|---------------------------------------------|
|---------------------------------------------|
|---------------------------------------------|
|---------------------------------------------|4x
|---6----5----4----3-------4----------3-------|
|---6----5----4----3-------4----------3-------|
|---4----3----2----1-------2----------1-------|

Order:
Riff 1, Riff 2                       
Riff 3, Riff 4
Riff 3, Riff 4
Riff 5, Riff 6
Riff 7, Riff 3
Riff 4
Enjoy!
Comments