Korn - Shoots And Ladders Chords & Tabs

 

Shoots And Ladders Chords & Tabs

Korn Chords & Tabs

Version: 2 Type: Tab 0 ratings
1 star 2 stars 3 stars 4 stars 5 stars
comments

Shoots And Ladders Tab

Artist: Korn
Song: shoots and ladders
Album: Korn
Tabber: Daniel- xxkRaZyKoRnFrEaKxx

this is for those korn fans without a 7 string guitar

6 string guitar tuned to standerd drop d DADGBE

bagpips intro
----------------------------10-8-11-8-10----
-11-9-13-9-11---9-13-9-11---11-9-13-9-11----
--------------------------------------------
--------------------------------------------
--------------------------------------------
--------------------------------------------

----13-11-13----13-15-13-10---------13-11-13------11--------------------
-11----------11-------------13---11-----------11------13--11--13--11----
------------------------------------------------------------------------
------------------------------------------------------------------------
------------------------------------------------------------------------
------------------------------------------------------------------------

------13--
-11-------
---------- repeat this when band kicks in
----------
----------
----------

-----------
-----------
----------- riff1
-----------
-11--11-11-
-33--33-33-

[ Tab from: http://www.guitartabs.cc/tabs/k/korn/shoots_and_ladders_tab_ver_2.html ]
-----------------------
-----------------------
-----------------------
-3^~--333333--33333333- riff 2 pre verse
-----------------------
-----------------------

--------
--------
--------
----3^~- verse
--------
-3------
-5------


---------------------------------
---------------------------------
---------------------------------
--------------------------------- chorus
-3--3-5--4--4-3--3-5--4--3-3-2-1-
-5--5-7--6--6-5--5-7--6--5-5-4-3-

-----------------------------
-----------------------------
-----------------------------
----------------------------- bridge
-----------------------------
--000-4-3-1-0--00-4-3-1-0----

-----------------------------
-----------------------------
-----------------------------
----------------------------- bridge 2 heavy part
--000-4-3-1-0--00-4-3-1-0----
--000-4-3-1-0--00-4-3-1-0----


---------------------
---------------------
---------------------
--------------------- interlude
-4--3--2--1--2--2--1-
-6--5--4--3--4--4--3-

-8^~--
-11^~-
------
------ outro
------
------

any comments email me at xxKornKidxx2003@yahoo.com

Comments